Oops, an error
Loading. Please wait.

Muerte En La Cruz tab

124 views 1 this week
no commentswrite comment
1 2 3 4 5
3 more votes to show rating
add to favorites
×
Save as Personal and add changes to this tab that will be seen only by you. Learn more ›
×
You can save this tab as Personal to edit and correct it or add notes. All changes will be seen only by you. Learn more »
launch autoscroll
font size
0
reset
how to read this tab
guitar tuner
edit
Autoscroll
slow
fast
+/-
esc
set tempo
stop
TRANSCRIBED BY RUDY GUZMAN
guzman_84@


intro
:------------------------------|
:------------------------------|
:------------------------------|
:------------------------------|
:------------------------------|
:-3-3-3--3-3-3--3-3--3-3-3-3-3-|

solo 1                  bar/\/\/\/\/\      bar/\/\/\/\/\
eb:----------------------------------------4NH~~~~~~~~--------------------------9NH~~~~-|
Bb:------------------------------------4NH----------------------------------------------|
Gb:-11~~~~\6--6/11~~~---9NH~~~~~~~~-----------------------11~~~~\-7~~~~/11~~~~~---------|
Db:-------------------------------------------------------------------------------------|
Ab:-------------------------------------------------------------------------------------|
Eb:-------------------------------------------------------------------------------------|
      bar/\/\/\/\/\
eb:-9/14~~~~~--------|
Bb:------------------|
Gb:------------------|
Db:------------------|
Ab:------------------|
Eb:------------------|

:------------------------------|
:------------------------------|
:------------------------------|
:------------------------------|
:-5-5-5--5-5-5--5-5--5-5-5-5-5-|
:-3-3-3--3-3-3--3-3--3-3-3-3-3-|

6 times
:--------------------------------------------|
:--------------------------------------------|
:--------------------------------------------|
:--------------------------------------------|
:-5-5-5--5-5-5--5-5--5-5-5-5-5-5--8-7-5--3-5-|
:-3-3-3--3-3-3--3-3--3-3-3-3-3-3--6-5-3--1-3-|

:------------------------------|
:------------------------------|
:------------------------------|
:------------------------------|
:-5-5-5--5-5-5--5-5--5-5-5-5-5-|
:-3-3-3--3-3-3--3-3--3-3-3-3-3-|


:---------------------------|
:---------------------------|
:---------------------------|
:---------------------------|
:-5-5-5-5-5--10-10-10-10-10-|
:-3-3-3-3-3--8--8--8--8--8--|

eb:----------|
Bb:----------|
Gb:----------|
Db:-8--7--3--|
Ab:-6--5--1--|
Eb:----------|

 3 times
eb:------------------------|
Bb:------------------------|
Gb:------------------------|
Db:------------------------|
Ab:--------------3-3-3-6p3-|
Eb:-3p2p0-3p2p0------------|

eb:----------|
Bb:----------|
Gb:----------|
Db:-8--7--3--|
Ab:-6--5--1--|
Eb:----------|


:---------------------------|
:---------------------------|
:---------------------------|
:---------------------------|
:-5-5-5-5-5--10-10-10-10-10-|
:-3-3-3-3-3--8--8--8--8--8--|

eb:----------|
Bb:----------|
Gb:----------|
Db:-8--7--3--|
Ab:-6--5--1--|
Eb:----------|

 3 times
eb:------------------------|
Bb:------------------------|
Gb:------------------------|
Db:------------------------|
Ab:--------------3-3-3-6p3-|
Eb:-3p2p0-3p2p0------------|

eb:----------|
Bb:----------|
Gb:----------|
Db:-8--7--3--|
Ab:-6--5--1--|
Eb:----------|

5 times
:--------------------------------------------|
:--------------------------------------------|
:--------------------------------------------|
:--------------------------------------------|
:-5-5-5--5-5-5--5-5--5-5-5-5-5-5--8-7-5--3-5-|
:-3-3-3--3-3-3--3-3--3-3-3-3-3-3--6-5-3--1-3-|


:------------------------------|
:------------------------------|
:------------------------------|
:------------------------------|
:-5-5-5--5-5-5--5-5--5-5-5-5-5-|
:-3-3-3--3-3-3--3-3--3-3-3-3-3-|

 3 times
:---------------------------|
:---------------------------|
:---------------------------|
:---------------------------|
:-5-5-5-5-5--10-10-10-10-10-|
:-3-3-3-3-3--8--8--8--8--8--|

eb:----------|
Bb:----------|
Gb:----------|
Db:-8--7--3--|
Ab:-6--5--1--|
Eb:----------|

 3 times
eb:------------------------|
Bb:------------------------|
Gb:------------------------|
Db:------------------------|
Ab:--------------3-3-3-6p3-|
Eb:-3p2p0-3p2p0------------|

eb:----------|
Bb:----------|
Gb:----------|
Db:-8--7--3--|
Ab:-6--5--1--|
Eb:----------|

 3 times
:---------------------------|
:---------------------------|
:---------------------------|
:---------------------------|
:-5-5-5-5-5--10-10-10-10-10-|
:-3-3-3-3-3--8--8--8--8--8--|

eb:----------|
Bb:----------|
Gb:----------|
Db:-8--7--3--|
Ab:-6--5--1--|
Eb:----------|

 3 times
eb:------------------------|
Bb:------------------------|
Gb:------------------------|
Db:------------------------|
Ab:--------------3-3-3-6p3-|
Eb:-3p2p0-3p2p0------------|

eb:----------|
Bb:----------|
Gb:----------|
Db:-8--7--3--|
Ab:-6--5--1--|
Eb:----------|

:------------------------------|
:------------------------------|
:------------------------------|
:------------------------------|
:------------------------------|
:-3-3-3--3-3-3--3-3--3-3-3-3-3-|

eb:----------|
Bb:----------|
Gb:----------|
Db:-8--7--3--|
Ab:-6--5--1--|
Eb:----------|

:------------------------------|
:------------------------------|
:------------------------------|
:------------------------------|
:------------------------------|
:-3-3-3--3-3-3--3-3--3-3-3-3-3-|

eb:----------|
Bb:----------|
Gb:----------|
Db:-8--7--3--|
Ab:-6--5--1--|
Eb:----------|

:------------------------------|
:------------------------------|
:------------------------------|
:------------------------------|
:------------------------------|
:-3-3-3--3-3-3--3-3--3-3-3-3-3-|

eb:----------|
Bb:----------|
Gb:----------|
Db:-8--7--3--|
Ab:-6--5--1--|
Eb:----------|

:------------------------------|
:------------------------------|
:------------------------------|
:------------------------------|
:------------------------------|
:-3-3-3--3-3-3--3-3--3-3-3-3-3-|

eb:----------|
Bb:----------|
Gb:----------|
Db:-8--7--3--|
Ab:-6--5--1--|
Eb:----------|

:------------------------------|
:------------------------------|
:------------------------------|
:------------------------------|
:-5-5-5--5-5-5--5-5--5-5-5-5-5-|
:-3-3-3--3-3-3--3-3--3-3-3-3-3-|

eb:----------|
Bb:----------|
Gb:----------|
Db:-8--7--3--|
Ab:-6--5--1--|
Eb:----------|

:------------------------------|
:------------------------------|
:------------------------------|
:------------------------------|
:-5-5-5--5-5-5--5-5--5-5-5-5-5-|
:-3-3-3--3-3-3--3-3--3-3-3-3-3-|

eb:----------|
Bb:----------|
Gb:----------|
Db:-8--7--3--|
Ab:-6--5--1--|
Eb:----------|

:------------------------------|
:------------------------------|
:------------------------------|
:------------------------------|
:-5-5-5--5-5-5--5-5--5-5-5-5-5-|
:-3-3-3--3-3-3--3-3--3-3-3-3-3-|

eb:----------|
Bb:----------|
Gb:----------|
Db:-8--7--3--|
Ab:-6--5--1--|
Eb:----------|

:------------------------------|
:------------------------------|
:------------------------------|
:------------------------------|
:-5-5-5--5-5-5--5-5--5-5-5-5-5-|
:-3-3-3--3-3-3--3-3--3-3-3-3-3-|

eb:----------|
Bb:----------|
Gb:----------|
Db:-8--7--3--|
Ab:-6--5--1--|
Eb:----------|

solo 2              repeat
eb:-----|-12-12-12-12-12----------------|-12-14-12----------------------------------------|
Bb:-/15-|----------------15-15-15-15-15-|----------15-12-15-12----------------------------|
Gb:-----|-------------------------------|----------------------14-12-14-12----------------|
Db:-----|-------------------------------|----------------------------------14-12-14-12-14-|
Ab:-----|-------------------------------|-------------------------------------------------|
Eb:-----|-------------------------------|-------------------------------------------------|

eb:---------------20-20-20-20-20-19-19-19-19-19-17-19-17-19-17----------------------------|
Bb:------------------------------------------------------------20-17-20-17----------------|
Gb:-12-14-14b~~~-----------------------------------------------------------19-17-19-17-19-|
Db:---------------------------------------------------------------------------------------|
Ab:---------------------------------------------------------------------------------------|
Eb:---------------------------------------------------------------------------------------|
                                                                    repeat
eb:---------------------------------------------------------------|---------|-------------|
Bb:---------------13-13-13-13-13-11-11-11-11-11-------------3h5p3-|---3h5p3-|-3-5-3-5-3-5-|
Gb:-19b--12ah~~~~-------------------------------12~~~~\-2/4-------|-4-------|-------------|
Db:---------------------------------------------------------------|---------|-------------|
Ab:---------------------------------------------------------------|---------|-------------|
Eb:---------------------------------------------------------------|---------|-------------|

                -----------
eb:------------/-----------------15-18-15-----16-19-16----17-20-17----18-21-18----19-22-19-|
Bb:-3-5-3--5bf/--5-5-5-5-5---/17----------/18----------19----------20----------21----------|
Gb:----------------------------------------------------------------------------------------|
Db:----------------------------------------------------------------------------------------|
Ab:----------------------------------------------------------------------------------------|
Eb:----------------------------------------------------------------------------------------|
                                        bar/\/\/\/\
eb:----19-22-19----------------------------------------------------------------------------|
Bb:-21----------22--17-19-21-19----------------------20~~~\--------------------------------|
Gb:-----------------------------21-19-21b~~~~~~~~~~-----------/9-9999-9-10-9-10-9-10--7-9-7|
Db:----------------------------------------------------------------------------------------|
Ab:----------------------------------------------------------------------------------------|
Eb:----------------------------------------------------------------------------------------|

:-------14-17-14-15-18-15-16-19-16-17-20-17-------16-19-16-19-16-19-16-19-16-19-16---------|
:---/16--------------------------------------20\-----------------------------------19-16-19|
:-9----------------------------------------------------------------------------------------|
:------------------------------------------------------------------------------------------|
:------------------------------------------------------------------------------------------|
:------------------------------------------------------------------------------------------|

eb:------------------------------------------------------------------------18b-------------|
Bb:-16-19-16-19-16--------------------16-19-16-19----16-19-16-19-16-19bp16-----20-17h19p17-|
Gb:----------------18-16-18-16--18-16-------------18---------------------------------------|
Db:----------------------------------------------------------------------------------------|
Ab:----------------------------------------------------------------------------------------|
Eb:----------------------------------------------------------------------------------------|

:-------------------------------------------------------10-12-10-12-10-12-10-12b--12ah~~~~-|
:-15h17p15-14h15p14-12h14p12-10h12p10-9h10p9-7h9p7-7/12------------------------------------|
:------------------------------------------------------------------------------------------|
:------------------------------------------------------------------------------------------|
:------------------------------------------------------------------------------------------|
:------------------------------------------------------------------------------------------|

eb:-15-12--14-11--13-10--12-9--11-8-10-7-7/12--15-12-15-12---------------------------------|
Bb:--------------------------------------------------------15-12-12h15p12------------------|
Gb:-----------------------------------------------------------------------14-12-12-14-12-14|
Db:----------------------------------------------------------------------------------------|
Ab:----------------------------------------------------------------------------------------|
Eb:----------------------------------------------------------------------------------------|

:------------------------------|
:-12-15-12h1p12------------15b-|
:---------------14-12--14--14b-|
:------------------------------|
:------------------------------|
:------------------------------|

3 times
:------------------------------|
:------------------------------|
:------------------------------|
:------------------------------|
:-5-5-5--5-5-5--5-5--5-5-5-5-5-|
:-3-3-3--3-3-3--3-3--3-3-3-3-3-|

eb:----------|
Bb:----------|
Gb:----------|
Db:-8--7--3--|
Ab:-6--5--1--|
Eb:----------|

3 times
:------------------------------|
:------------------------------|
:------------------------------|
:------------------------------|
:-5-5-5--5-5-5--5-5--5-5-5-5-5-|
:-3-3-3--3-3-3--3-3--3-3-3-3-3-|

eb:----------|
Bb:----------|
Gb:----------|
Db:-8--7--3--|
Ab:-6--5--1--|
Eb:----------|

3 times
:------------------------------|
:------------------------------|
:------------------------------|
:------------------------------|
:-5-5-5--5-5-5--5-5--5-5-5-5-5-|
:-3-3-3--3-3-3--3-3--3-3-3-3-3-|

eb:----------------|
Bb:----------------|
Gb:----------------|
Db:-8--7--3--------|
Ab:-6--5--1--5-----|
Eb:----------3-----|

            
            
Suggest correction
Creating personal tab
Creating personal tab
You can edit any tab online and save it as your Personal.

You can edit, replace or remove any tab part or add personal notes – all changes will be seen only by you.

Personal tabs can be accessed anytime from any device, even offline.
Learn more »
Give kudos to tab author, rate the tab!
1 2 3 4 5
comments
print report bad tab
guest
Wanna post a correction for this tab? Suggest correction