Oops, an error
Loading. Please wait.

Down In Oakland tab

version 1
version 1

Whole song

Interactive

981 views 1 this week
3 commentsread comments
1 2 3 4 5
x 3
add to favorites
×
Save as Personal and add changes to this tab that will be seen only by you. Learn more ›
×
You can save this tab as Personal to edit and correct it or add notes. All changes will be seen only by you. Learn more »
launch autoscroll
font size
0
reset
how to read this tab
guitar tuner
edit
Autoscroll
slow
fast
+/-
esc
set tempo
stop
BAND : TRANSPLANTS
SONG : DOWN IN OAKLAND
TABBED BY : QUINCY SLOAN

HERE IS ANOTHER TRANSPLANTS TAB. 'SAD BUT TRUE' AND 'WE TRUSTED YOU' ON THEIR WAY. ENJOY

MAIN PART/VERSE
E :--------------------------------------
B :--------------------------------------
G :--------------------------------------
D :--------------------------------------
A :-2-2--2--2--2-------------------------
E :---------------0---3-3-3--3--2--------

EXTRA FILL
E :----------------------------------
B :----------------------------------
G :----------------------------------
D :----------------------------------
A :-2-3-2-0--------------------------
E :----------3--2--------------------

THAT IS IT. THERE ARE SOME WEIRD SAMPLES BUT THEY ARE NOT ON GUITAR, I DON'T THINK

            
            
Suggest correction
Creating personal tab
Creating personal tab
You can edit any tab online and save it as your Personal.

You can edit, replace or remove any tab part or add personal notes – all changes will be seen only by you.

Personal tabs can be accessed anytime from any device, even offline.
Learn more »
Give kudos to tab author, rate the tab!
1 2 3 4 5
comments
print report bad tab
3 comments total.
0 reply
mike8215 140 Jun 16, 2003 08:00 PM

just drop that down a string play those notes on the A and D strings

0 reply
guitarghetto 35 Sep 18, 2003 08:00 PM

ya got it. at the end leave an open, but no crap you knew that

0 reply
Malakiancopycat 142 Oct 14, 2008 09:37 AM

MAIN PART/VERSE
E :--------------------------------------
B :--------------------------------------
G :--------------------------------------
D :--------------------------------------
A :-7-7-7-7-7-0--------------------------
E :----------------3-3-3--3--2-----------

thats what is should be.

guest
Wanna post a correction for this tab? Suggest correction