Oops, an error
Loading. Please wait.

Still Frame bass

version 2
version 2

Whole song

Interactive

by Trapt
127 views 1 this week
no commentswrite comment
1 2 3 4 5
2 more votes to show rating
add to favorites
×
Save as Personal and add changes to this tab that will be seen only by you. Learn more ›
×
You can save this tab as Personal to edit and correct it or add notes. All changes will be seen only by you. Learn more »
launch autoscroll
font size
0
reset
guitar tuner
edit
Autoscroll
slow
fast
+/-
esc
set tempo
stop
Author
Difficulty
[Intro]

G|-----------------------------------|
D|-----------------------------------|
A|-----------------------------------| X4
E|-----------------------------------|
B|-12-12--10-10---12---10--0--0--12--|


[Pre-Chorus]

G|-----------------|---------------|---------------|---------------|
D|-----------------|---------------|---------------|---------------|
A|-----------------|---------------|---------------|---------------|
E|-7-------5---7-7-|-3-----5---7-7-|-7-----5---7-7-|-3-----5---7-7-|
B|----0-0----------|----0----------|----0----------|----0----------|

G|-----------------|---------------|---------------|----------------|
D|-----------------|---------------|---------------|----------------|
A|-----------------|---------------|---------------|----------------|
E|-7-------5---7-7-|-3-----5---7-7-|-7-----5---7-7-|-3-----5---7/19-|
B|----0-0----------|----0----------|----0----------|----0-----------|


[Chorus]

G|----------|----------|----------|---------------|
D|----------|----------|----------|---------------|
A|----------|----------|-19---19--|-19---19-------|
E|-19---19--|-19---19--|--0----0--|--0----0-------|
B|--0----0--|--0----0--|----------|----------19/7-|

G|----------|----------|----------|-----------------|
D|----------|----------|----------|-----------------|
A|----------|----------|--7----7--|--7----7---------|
E|--7----7--|--7----7--|--0----0--|--0----0---------|
B|--0----0--|--0----0--|----------|----------7/12\7-|


[Verse 1]

G|-----------------|----------------|-----------------|------------------|
D|---9--------9----|---7--------7---|---5--------5----|---7---------7----|
A|----------9------|----------7-----|----------5------|-----------7------|
E|-7------7-----7--|-5------5-----5-|-3------3------3-|-5-------5------5-|
B|-----0-----------|-----0----------|-----0-----------|-----0------------|

G|-----------------|----------------|-----------------|------------------|
D|---9--------9----|---7--------7---|---5--------5----|---7--------------|
A|----------9------|----------7-----|----------5------|------------------|
E|-7------7-----7--|-5------5-----5-|-3------3------3-|-5----------------|
B|-----0-----------|-----0----------|-----0-----------|-----0~~~~~~~~----|


[Pre-Chorus]

G|-----------------|---------------|---------------|---------------|
D|-----------------|---------------|---------------|---------------|
A|-----------------|---------------|---------------|---------------|
E|-7-------5---7-7-|-3-----5---7-7-|-7-----5---7-7-|-3-----5---7-7-|
B|----0-0----------|----0----------|----0----------|----0----------|

G|-----------------|---------------|---------------|----------------|
D|-----------------|---------------|---------------|----------------|
A|-----------------|---------------|---------------|----------------|
E|-7-------5---7-7-|-3-----5---7-7-|-7-----5---7-7-|-3-----5---7/19-|
B|----0-0----------|----0----------|----0----------|----0-----------|


[Chorus]

G|----------|----------|----------|---------------|
D|----------|----------|----------|---------------|
A|----------|----------|-19---19--|-19---19-------|
E|-19---19--|-19---19--|--0----0--|--0----0-------|
B|--0----0--|--0----0--|----------|----------19/7-|

G|----------|----------|----------|-----------------|
D|----------|----------|----------|-----------------|
A|----------|----------|--7----7--|--7----7---------|
E|--7----7--|--7----7--|--0----0--|--0----0---------|
B|--0----0--|--0----0--|----------|----------7/12\7-|


[Verse 2]

G|-----------------|----------------|-----------------|------------------|
D|---9--------9----|---7--------7---|---5--------5----|---7---------7----|
A|----------9------|----------7-----|----------5------|-----------7------|
E|-7------7-----7--|-5------5-----5-|-3------3------3-|-5-------5------5-|
B|-----0-----------|-----0----------|-----0-----------|-----0------------|

G|-----------------|----------------|-----------------|------------------|
D|---9--------9----|---7--------7---|---5--------5----|---7--------------|
A|----------9------|----------7-----|----------5------|-----------7~~~---|
E|-7------7-----7--|-5------5-----5-|-3------3------3-|-5------5---------|
B|-----0-----------|-----0----------|-----0-----------|-----0------------|

G|--------------------|---------------|----------------|-----------------|
D|----------9~--------|---------------|---5------------|---7-------------|
A|------7-9-------9---|-----------7---|-----------5----|-----------7-----|
E|-7-7-9------7-7---7-|-7--5--5-5---5-|-3-----3-3---3--|-5-----5-5---5---| 
B|--------------------|---0-----------|-----0----------|-----0-----------|

G|--------------------|---------------|----------------|-----------------|
D|----------9~--------|---------------|---5------------|---7-------------|
A|------7-9-------9---|-----------7---|-----------5----|-----------------|
E|-7-7-9------7-7---7-|-7--5--5-5---5-|-3-----3-3---3--|-5---------------| 
B|--------------------|---0-----------|-----0----------|-----0~~~~~~~----|


[Pre-Chorus]

G|-----------------|---------------|---------------|---------------|
D|-----------------|---------------|---------------|---------------|
A|-----------------|---------------|---------------|---------------|
E|-7-------5---7-7-|-3-----5---7-7-|-7-----5---7-7-|-3-----5---7-7-|
B|----0-0----------|----0----------|----0----------|----0----------|

G|-----------------|---------------|---------------|----------------|
D|-----------------|---------------|---------------|----------------|
A|-----------------|---------------|---------------|----------------|
E|-7-------5---7-7-|-3-----5---7-7-|-7-----5---7-7-|-3-----5---7/19-|
B|----0-0----------|----0----------|----0----------|----0-----------|


[Chorus]

G|----------|----------|----------|---------------|
D|----------|----------|----------|---------------|
A|----------|----------|-19---19--|-19---19-------|
E|-19---19--|-19---19--|--0----0--|--0----0-------|
B|--0----0--|--0----0--|----------|----------19/7-|

G|----------|----------|----------|-----------------|
D|----------|----------|----------|-----------------|
A|----------|----------|--7----7--|--7----7---------|
E|--7----7--|--7----7--|--0----0--|--0----0---------|
B|--0----0--|--0----0--|----------|----------7/12\7-|


[Bridge]

G|-14-16--------|-12-14--------|-11-12----------|-12-14-----------|
D|--------------|--------------|----------------|-----------------|
A|-------14-14--|-------12-12--|--------10-10---|--------12-12----|
E|--------------|--------------|----------------|-----------------| 
B|--------------|--------------|----------------|-----------------|

G|-14-16-------------------------|-12-14---------------------|
D|-------------------------------|---------------------------|
A|-------14-14-14-14-14-14-14-14-|-------12-12-12-12-12-12-12|
E|-------------------------------|---------------------------|
B|-------------------------------|---------------------------|

G|-11-12----------------------|-12-14-----------------|
D|----------------------------|-----------------------|
A|-------10-10-10-10-10-10-10-|-------12-12-12~~~~----|
E|----------------------------|-----------------------|
B|----------------------------|-----------------------|

     (Rest)
G|-----|-----|-------|-------|
D|-----|-----|-------|-------|
A|-----|-----|-------|-------|
E|-----|-----|--3-3--|--5-5--|
B|-----|-----|-------|-------|

G|-----|-----|-----|---------|
D|-----|-----|-----|-7-------|
A|-----|-----|-----|---7-----|
E|--7--|--5--|--3--|-----5~~-|
B|--0--|--0--|--0--|---------|


[Pre-Chorus]

G|-----------------|---------------|---------------|---------------|
D|-----------------|---------------|---------------|---------------|
A|-----------------|---------------|---------------|---------------|
E|-7-------5---7-7-|-3-----5---7-7-|-7-----5---7-7-|-3-----5---7-7-|
B|----0-0----------|----0----------|----0----------|----0----------|

G|-----------------|---------------|---------------|----------------|
D|-----------------|---------------|---------------|----------------|
A|-----------------|---------------|---------------|----------------|
E|-7-------5---7-7-|-3-----5---7-7-|-7-----5---7-7-|-3-----5---7/19-|
B|----0-0----------|----0----------|----0----------|----0-----------|


[Chorus]

G|----------|----------|----------|---------------|
D|----------|----------|----------|---------------|
A|----------|----------|-19---19--|-19---19-------|
E|-19---19--|-19---19--|--0----0--|--0----0-------|
B|--0----0--|--0----0--|----------|----------19/7-|

G|----------|----------|----------|-----------------|
D|----------|----------|----------|-----------------|
A|----------|----------|--7----7--|--7----7---------|
E|--7----7--|--7----7--|--0----0--|--0----0---------|
B|--0----0--|--0----0--|----------|----------7/12\7-|


[Outro]

G|----------|-----------|-----|-----|
D|----------|-----------|-----|-----|
A|----------|-----------|-----|-----| X3
E|----------|-----------|-----|-----|
B|--4--4-4--|--3--3-3-3-|--5--|--0--|

G|----------|-----------|--------|
D|----------|-----------|--------|
A|----------|-----------|--7-----|
E|----------|-----------|----0---|
B|--4--4-4--|--3--3-3-3-|------0-|



***********************************
| /   Slide up
| \   Slide down 
| ~   Vibrato
***********************************

            
            
Suggest correction
Creating personal tab
Creating personal tab
You can edit any tab online and save it as your Personal.

You can edit, replace or remove any tab part or add personal notes – all changes will be seen only by you.

Personal tabs can be accessed anytime from any device, even offline.
Learn more »
Give kudos to tab author, rate the tab!
1 2 3 4 5
comments
print report bad tab
guest
You may want to rate the tab now too:
select rating
Wanna post a correction for this tab? Suggest correction