Oops, an error
Loading. Please wait.

Stories solo tab

version 1
version 1

Solo

Whole song

Interactive

by Trapt
6,194 views 1 this week
1 commentread comment
1 2 3 4 5
1 last vote to show rating
add to favorites
×
Save as Personal and add changes to this tab that will be seen only by you. Learn more ›
×
You can save this tab as Personal to edit and correct it or add notes. All changes will be seen only by you. Learn more »
launch autoscroll
font size
0
reset
how to read this tab
guitar tuner
edit
Autoscroll
slow
fast
+/-
esc
set tempo
stop
gr8 begener tab 
Trapt - stories
Tabbed By: my friend
Email: gimoire_guitar@yahoo.com

                              lisen 2 song for rithum (how ever u spell it)
Tuning: Standard (E A D G B E)

     Intro/Verse                                play 4x
E|---------------------------------------------------------------------------||
B|---------------------7-5-3-5-4-0-------------------------------------------||
G|-44444x44444/88888/--------------------------------------------------------||4x
D|-xxxxxxxxxxx/xxxxx/--------------------------------------------------------||
A|-22222x22222/66666/--------------------------------------------------------||
E|---------------------------------------------------------------------------||

      Chorus
E|-------------------------------------|-------------------------------------||
B|--------------------------2 times----|----5-4-2---0------------------------||
G|44-------44--------------------------|----------4--------------------------||
D|xx-44444-xx-44444-66666--------------|-------------------------------------||
A|22-xxxxx-22-xxxxx-xxxxx--------------|-------------------------------------||
E|---22222----22222-44444--------------|-------------------------------------||

  solo 1st part "Do you remember....."
E|-----------12-12-12-12-11-9--------------12-14-12-11-9-7-11-------12-14----||
B|-12--12-14------------------12--12-12-14--------------------12-14-------12-||
G|---------------------------------------------------------------------------||
D|---------------------------------------------------------------------------||
A|---------------------------------------------------------------------------||
E|---------------------------------------------------------------------------||

  solo part 2 "for you...."
E|-14-14-12-19-12-11-11-9-7-12-7-9-7-12-7-9-7-14-14-12-19-12-11-9-7-11-12-11-||
B|---------------------------------------------------------------------------||
G|---------------------------------------------------------------------------||
D|---------------------------------------------------------------------------||
A|---------------------------------------------------------------------------||
E|---------------------------------------------------------------------------||

   solo 2nt part continued
E|-7--12-11-7-12-11-7--------------------------------------------------------||
B|---------------------------------------------------------------------------||
G|---------------------------------------------------------------------------||
D|---------------------------------------------------------------------------||
A|---------------------------------------------------------------------------||
E|---------------------------------------------------------------------------||
 
 im not 2 sher about the chorus.
 if u have suggestons send 2 grimoire_guitar@yahoo.com
 but thats it have fun now.

            
            
Suggest correction
Creating personal tab
Creating personal tab
You can edit any tab online and save it as your Personal.

You can edit, replace or remove any tab part or add personal notes – all changes will be seen only by you.

Personal tabs can be accessed anytime from any device, even offline.
Learn more »
Give kudos to tab author, rate the tab!
1 2 3 4 5
comments
print report bad tab
1 comment total.
+1 reply
cparker3210 10 Nov 19, 2004 07:00 PM

Here's a way easier way to play that solo

E|---------19-------------------------------------------------------------19--------------||
B|-19-19-17--17-16-16--------17-----------17--------------19-19-17---17-16-------16-17----||
G|---------------------18-16---16-18--16-----16-18--16----------------------18-16---------||
D|----------------------------------------------------------------------------------------||
A|----------------------------------------------------------------------------------------||
E|----------------------------------------------------------------------------------------||

guest
Wanna post a correction for this tab? Suggest correction