Oops, an error
Loading. Please wait.

Perspective chords

version 1
version 1

Whole song

  • Taken from this video https://www.youtube.com/watc... Show more
2,038 views 12 this week
no commentswrite comment
1 2 3 4 5
x 4
add to favorites
×
Save as Personal and add changes to this tab that will be seen only by you. Learn more ›
×
You can save this tab as Personal to edit and correct it or add notes. All changes will be seen only by you. Learn more »
launch autoscroll
font size
0
reset
transpose
0
reset
simplify chords
display chords
guitar tuner
edit
Autoscroll
slow
fast
+/-
esc
set tempo
stop
Strumming
There is no strumming pattern for this song yet. and get +5 IQ
suppy. just thought i'd share this. this is how i play it acoustically.

Chords used:
  Cadd9   G     Em7     Dsus4
e|--3-----3------3-------3--------|
B|--3-----3------3-------3--------|
G|--0-----0------0-------2--------|
D|--2-----0------2-------0--------|
A|--3-----2------2----------------|
E|--------3------0----------------|

[Intro]

all tab relative to capo

either play this tab during intro or the chords
e|--------------------------------------|
B|--------------------------------------|
G|-----6-6/7\6---6-----6-6/7\6--6--6----|
D|----7-7-------7-7---7-7------7--7-----|play twice
A|---5---------5---0-5--------5--0------|
E|--------------------------------------|

 
G                                Cadd9
I’m right back at the start again
                  Em7           Dsus4          
Barefoot to this lonely path of broken glass
  G                  
I never thought It’d come to this
  Cadd9
I close my eyes and act as if
 Em7
I don’t need anything from you
   Dsus4             G 
Or anyone to help me through this

G Cadd9 Em7 Dsus4 x2

*=strum once

           G*                      Cadd9*
I’ve never felt fear like this in my life
                   Em7*
Wake up to find my parents by my side
     Dsus4*          Dsus4*
They shake in anger, breaking down
        G
And I’d never seen my father cry
    Cadd9
His armor stripped for the first time
    Em7                             Dsus4
I’d never wish a scene like that on an enemy that I despised


[Interlude]

e|---------------|
B|---------------|
G|-----6-6/7\6---|
D|----7-7--------|
A|---5-----------|
E|---------------|


G                      Cadd9
 We broke down together

Built up for the better
Em7
Pushing through for better weather
Dsus4                              G
Will anything release this pressure 
               Cadd9            Em7
And I won’t forget how you were there
         Dsus4
From the first to the last

G Cadd9 Em7 Dsus4 x2

G             Cadd9                     Em7
And I know the pain will subside when I learn to put things in perspective
Dsus4                       G
Every fucking day I get this voice in my head
        Cadd9                     Em7
Convince me that I’m scared of my own two feet
        Dsus4
And the ground they tread


[Interlude]

e|---------------|
B|---------------|
G|-----6---------|
D|----7-7--------|
A|---5---0-------|
E|---------------|

G                      Cadd9
 We broke down together

Built up for the better
Em7
Pushing through for better weather
Dsus4                      G
Will anything release this pressure 
               Cadd9            Em7
And I won’t forget how you were there
         Dsus4
From the first to the last

e|--------------------------------------|
B|--------------------------------------|
G|-----6-6/7\6---6-----6-6/7\6--6--6----|
D|----7-7-------7-7---7-7------7--7-----|
A|---5---------5---0-5--------5--0------|
E|--------------------------------------|

Or

G* Cadd9* Cadd9* Em7* Dsus4* Dsus4*


G*                                Cadd9*  Cadd9*
I never thought that things would come to this
  Em7*             Dsus4*  Dsus4*
I close my eyes and act as if
             G*                Cadd9* Cadd9* Em7*
I don’t need anything from you or anyone to help me through
Dsus4*     G
To help me through 

Cadd9 Em7 Dsus4
G Cadd9 Em7 Dsus4


[Ending]

Dsus4



************************************

| /  Slide up
| \  Slide down  

************************************

            
            
Suggest correction
Creating personal tab
Creating personal tab
You can edit any tab online and save it as your Personal.

You can edit, replace or remove any tab part or add personal notes – all changes will be seen only by you.

Personal tabs can be accessed anytime from any device, even offline.
Learn more »
comments
print report bad tab
guest
You may want to rate the tab now too:
select rating
Wanna post a correction for this tab? Suggest correction