Oops, an error
Loading. Please wait.

Rave Dave bass

449 views 1 this week
no commentswrite comment
1 2 3 4 5
2 more votes to show rating
add to favorites
×
Save as Personal and add changes to this tab that will be seen only by you. Learn more ›
×
You can save this tab as Personal to edit and correct it or add notes. All changes will be seen only by you. Learn more »
launch autoscroll
font size
0
reset
guitar tuner
edit
Autoscroll
slow
fast
+/-
esc
set tempo
stop
Difficulty
Standard Tuning

My first tab so a bit rough, but it goes with the song
*Complete except for outro*

*Intro*

|------0-0-------0-0-------0-0------------|
|-----------------------------------------|
|-----------------------------------------|
|--8-8-----8\6-6-----6/8-8-----6/8-8------|

|------0-0-------0-0-------0-0------------|
|-----------------------------------------|
|-----------------------------------------|
|--6/8-8-----8\6-6-----6/8-8-----6/8-8----|


*Intro part 2*

|----------------------0--------------------0---0----|
|----------------------------------------------------|
|----------------------------------------------------|
|-6/8-8-88-8-8-8-88-8-----8-8-88-8-8-8-5-6--7---8----|

|------------------0-----------------------------|
|------------------------------------------------|
|------------------------------------------------|
|-8-88-8-8-8-88-8----8-8-88-8-8 (hold note)------|

*Chorus*

|-----------------------|
|---------------    x 4-|
|-----------------------|
|--88-88-99-99-6--------|

|---------------00--------------------------|
|-------------------------------------------|
|-------------------------------------------|
|--88-99-77-66-----6/88-88-99-6-88-88-99-6--|

|------0-0-| *-------0-0-------0-0-        -------0-0------0-0------|
|----------| *---------------------  x 4  --------------------------|
|----------| *---------------------         ------------------------|
|--8-8-----| *-7\6-6-----6/8-8-----        -6/8-8-----6/8-8---------|

|------0-0------|
|---------------|
|---------------|
|--8-8-----6----|


*Filler*

|-----0-0-------0-0--          --------0-0-------0-0----------|
|--------------------    x3   --------------------------------|
|--------------------           ------------------------------|
|-8-8-----7\6-6------          --6/8-8-----6/8-8------6/------|

|----------------------------------------------------|
|----------------------------------------------------|
|---------------------------- (Haven't got this bit -|
|-8--6---8---6--8------------------------------------| the music is too loud for me to hear the bass)


*Chorus*


This is all I've got so, if anyone completes por has changes to this, please e-mail it 
me at arg_zombies@hotmail.co.uk

-Thanks

www.trashfashion.co.uk

            
            
Suggest correction
Creating personal tab
Creating personal tab
You can edit any tab online and save it as your Personal.

You can edit, replace or remove any tab part or add personal notes – all changes will be seen only by you.

Personal tabs can be accessed anytime from any device, even offline.
Learn more »
Give kudos to tab author, rate the tab!
1 2 3 4 5
comments
print report bad tab
guest
Wanna post a correction for this tab? Suggest correction