Oops, an error
Loading. Please wait.

Worthless Nights bass

version 1
version 1

Whole song

Interactive

1,676 views 1 this week
2 commentsread comments
1 2 3 4 5
3 more votes to show rating
add to favorites
×
Save as Personal and add changes to this tab that will be seen only by you. Learn more ›
×
You can save this tab as Personal to edit and correct it or add notes. All changes will be seen only by you. Learn more »
launch autoscroll
font size
0
reset
guitar tuner
edit
Autoscroll
slow
fast
+/-
esc
set tempo
stop
(Guitars and cymbals ring in from FYRA)
|----------------|
|----------------|
|-------3--------|
|2-2-222--332-55-|
(Vocals, guitars and drums come in)
|----------------|----------------|----------------|----------------|
|----------------|----------------|----------------|----------------|
|-------3--------|-------3--------|-------3--------|-------3--------|
|2-2-222--332-55-|2-2-222--332-55-|2-2-222--332-55-|2-2-222--332-55-|
(Little time change)
|----------------|----------------|
|----------------|----------------|
|----------------|----------------|
|2-2-2-2-2-------|----------------|
(Let that ring for a little bit while Lee screams "FUCK")
(Guitars and cymbals still ringing) 
|----------------|----------------|
|----------------|----------------|
|-------3--------|-------3--------|
|2-2-222--332-55-|2-2-222--332-55-|
(Vocals, drums and guitars come in)
|----------------|----------------|----------------|----------------|
|----------------|----------------|----------------|----------------|
|-------3--------|-------3--------|-------3--------|-------3--------|
|2-2-222--332-55-|2-2-222--332-55-|2-2-222--332-55-|2-2-222--332-55-|

|-----------------|
|-----------------|
|-----------------|
|2-2-2-2-2-------|
(Let that ring it out)

I still plan on tabbing every album they have.

            
            
Suggest correction
Creating personal tab
Creating personal tab
You can edit any tab online and save it as your Personal.

You can edit, replace or remove any tab part or add personal notes – all changes will be seen only by you.

Personal tabs can be accessed anytime from any device, even offline.
Learn more »
Give kudos to tab author, rate the tab!
1 2 3 4 5
comments
print report bad tab
2 comments total.
0 reply
Brendan.Pivin 156 Jan 16, 2009 12:21 PM

Nice tab! Wasnt the one i was looking for, but it looks about right :D

0 reply
satsallica 10 Jun 19, 2009 05:20 AM

Hey dude, thanks for the Trash Talk tabs,appreciate it a lot, now I can study bass playing songs which I like. Any chance your gonna tab some bass from Ruiner?

guest
Wanna post a correction for this tab? Suggest correction