Oops, an error
Loading. Please wait.

Not Alone Any More bass

70 views 1 this week
1 commentread comment
1 2 3 4 5
2 more votes to show rating
add to favorites
×
Save as Personal and add changes to this tab that will be seen only by you. Learn more ›
×
You can save this tab as Personal to edit and correct it or add notes. All changes will be seen only by you. Learn more »
launch autoscroll
font size
0
reset
guitar tuner
edit
Autoscroll
slow
fast
+/-
esc
set tempo
stop
Not Alone Anymore
Track by The Traveling Wilburys with the late Roy Orbison on lead vocals.
Bass performance Tom Petty. Tab by bass50611 Not exact but very close to
Original. Roy Orbison’s voice range is amazing – what a voice!

Intro:
G|-------------------------------------------------------------------|
D|---------------7---------------------------------7-----------------|
A|-5-5-5-5-5-5-5---3-3-3-3-3-3-3-3---5-5-5-5-5-5-5---3-3-3-3-3-3-3-4-|
E|-------------------------------------------------------------------|

Verse 1:                                                (Play This Bit x2)
G|-----------------------------------------------------------------------|
D|-----------------------------------------------------------------------|
A|-5-5-5-5-5-5-5-5---2-2-2-2-2-2-2-2-------------------------------------|
E|-----------------------------------2-2-2-2-2-2-2-2---3-3-3-3---5-5-5-5-|

                                               (Play This Bit x2)
G|-----------------------------------------------------------|
D|-5-5-5--5-5-5--5-5-5--5-5-5--------------------------------|
A|------5------5------5------5---7-7-7--7-7-7--7-7-7--7-7-7--|
E|------------------------------------7------7------7------7-|

Chorus:
G|-----------------------------------------------------------------|
D|-4-4-4-4-4-4-4-4---5-5-5-5---7-7-7-7---4-4-4-4-4-4-4-4---5-5-5-5-|
A|-----------------------------------------------------------------|
E|-----------------------------------------------------------------|

G|---------------------------------------------------------------|
D|-7-7-7-7---4-4-4-4-4-4-4-4---5-5-5-5---7-7-7-7-----------------|
A|---------------------------------------------------------------|
E|-----------------------------------------------7-7-7-7-7-7-7-7-|

G|-----------------------------------------------------|
D|-----------------------------------------------------|
A|-----------------------------------------------------|
E|-7-7-7-7-7-7-7-7---3-3-3-3-3-3-3-3---5-5-5-5-5-5-5-5-|

Interlude:
G|-------------------------------------------------------------------|
D|---------------7---------------------------------7-----------------|
A|-5-5-5-5-5-5-5---3-3-3-3-3-3-3-3---5-5-5-5-5-5-5---3-3-3-3-3-3-3-4-|
E|-------------------------------------------------------------------|

Verse 2:                                                (Play This Bit x2)
G|-----------------------------------------------------------------------|
D|-----------------------------------------------------------------------|
A|-5-5-5-5-5-5-5-5---2-2-2-2-2-2-2-2-------------------------------------|
E|-----------------------------------2-2-2-2-2-2-2-2---3-3-3-3---5-5-5-5-|

G|------------------------------------------------------------|
D|-5-5-5--5-5-5--5-5-5--5-5-5---------------------------------|
A|------5------5------5------5---7-7-7--7-7-7--7-7-7--7-5-7-5-|
E|------------------------------------7------7------7---------|

G|------------------------------------------------------------|
D|-5-5-5--5-5-5--5-5-5--5-5-5---------------------------------|
A|------5------5------5------5---7-7-7--7-7-7--7-7-7--7-7-7-8-|
E|------------------------------------7------7------7---------|

Chorus:
G|-----------------------------------------------------------------|
D|-4-4-4-4-4-4-4-4---5-5-5-5---7-7-7-7---4-4-4-4-4-4-4-4---5-5-5-5-|
A|-----------------------------------------------------------------|
E|-----------------------------------------------------------------|

G|---------------------------------------------------------------|
D|-7-7-7-7---4-4-4-4-4-4-4-4---5-5-5-5---7-7-7-7-----------------|
A|---------------------------------------------------------------|
E|-----------------------------------------------7-7-7-7-7-7-7-7-|

G|-----------------------------------------------------|
D|-----------------------------------------------------|
A|-----------------------------------------------------|
E|-7-7-7-7-7-7-7-7---3-3-3-3-3-3-3-3---5-5-5-5-5-5-5-5-|

Interlude:
G|-----------------------------------|
D|-----------------------------------|
A|-5-5-5-5-5-5-5-5---5-5-5-5-5-3-2-3-|
E|-----------------------------------|

Verse 3:
G|--------------------------------------------------------------------|
D|--------------------------------------------------------------------|
A|-5-5-5-5-5-5-5-5------------------------------------0-0-0-0-2-2-4-4-|
E|------------------2-2-2-2-2-2-2-2---3-3-3-3-3-3-3-3-----------------|

G|--------------------------------------------------------------------|
D|--------------------------------------------------------------------|
A|-5-5-5-5-5-5-5-5------------------------------------0-0-0-0-0-0-0-0-|
E|------------------2-2-2-2-2-2-2-2---3-3-3-3-3-3-3-3-----------------|

G|------------------------------------------------------------|
D|-5-5-5--5-5-5--5-5-5--5-5-5---------------------------------|
A|------5------5------5------5---7-7-7--7-7-7--7-7-7--7-5-7-5-|
E|------------------------------------7------7------7---------|

G|------------------------------------------------------------|
D|-5-5-5--5-5-5--5-5-5--5-5-5---------------------------------|
A|------5------5------5------5---7-7-7--7-7-7--7-7-7--7-7-7-8-|
E|------------------------------------7------7------7---------|

Chorus 2:
G|-----------------------------------------------------------------|
D|-4-4-4-4-4-4-4-4---5-5-5-5---7-7-7-7---4-4-4-4-4-4-4-4---5-5-5-5-|
A|-----------------------------------------------------------------|
E|-----------------------------------------------------------------|

G|----------------------------------------------------------------|
D|-7-7-7-7---4-4-4-4-4-4-4-4---5--5--5---7--7--7------------------|
A|----------------------------------------------------------------|
E|------------------------------------------------7-7-7-7-7-7-7-7-|

G|-----------------|
D|-----------------|
A|-----------------|
E|-7-7-7-7-7-7-7-7-|

Outro:
G|---------------------------------------------------------------------|
D|-5-5-5-5-5-5-5-5---7-7-7-7-7-7-7-7-----------------------------------|
A|-----------------------------------5-5-5-5-5-5-5-5---2-2-2-2-2-2-2-2-|
E|---------------------------------------------------------------------|

G|--------------------------------------------------------------------|
D|--------------------------------------------------7-----------------|
A|------------------------------------5-5-5-5-5-5-5---3-3-3-3-3-3-3-4-|
E|-3-3-3-3-3-3-3-3---5-5-5-5-5-5-5-5----------------------------------|

                                                                      (End)
G|-----------------------------------------------------------------------|
D|---------------7--------------------------------7----------------------|
A|-5-5-5-5-5-5-5---3-3-3-3-3-3-3-4---5-5-5-5-5-5-5---3-3-3-3-3-3-3-3----5|
E|-----------------------------------------------------------------------|


            
            
Suggest correction
Creating personal tab
Creating personal tab
You can edit any tab online and save it as your Personal.

You can edit, replace or remove any tab part or add personal notes – all changes will be seen only by you.

Personal tabs can be accessed anytime from any device, even offline.
Learn more »
Give kudos to tab author, rate the tab!
1 2 3 4 5
comments
print report bad tab
1 comment total.
0 reply
LBassy 39 May 15, 2017 07:38 AM

I very much look forward to the day when you learn what a measure is and how to indicate them in your tabs.

guest
You may want to rate the tab now too:
select rating
Wanna post a correction for this tab? Suggest correction