Oops, an error
Loading. Please wait.

Rattled bass

1,298 views 3 this week
no commentswrite comment
1 2 3 4 5
3 more votes to show rating
add to favorites
×
Save as Personal and add changes to this tab that will be seen only by you. Learn more ›
×
You can save this tab as Personal to edit and correct it or add notes. All changes will be seen only by you. Learn more »
launch autoscroll
font size
0
reset
guitar tuner
edit
Autoscroll
slow
fast
+/-
esc
set tempo
stop
Author
Difficulty
Rattled
Written and recorded by The Traveling Wilburys in 1988.
Produced by Jeff Lynne and George Harrison, this track
Taken from their Vol. 1 album original bassist Tom Petty
Tab by bass5061. Straight forward song perhaps not exactly
as original, Ive put a turn round in verse, but it fits and
sounds good on stage. Any comments: bass254@btinternet.com

Intro:
G|-------------|--------------------|
D|---NO BASS---|--------------------|
A|-------------|-7---7---7---7----4-|
E|-------------|--7---7---7---7-9---|

Verse 1:
G|---------------------------------------------------------------|
D|---------------------------------------------------------------|
A|-7---7---7---7---4---7---7---7---7------------7---7---2---2--2-|
E|--7---7---7---7-9-----7---7---7-----0-2-3---5---5--5---2---2---|

G|-------------------|
D|-------------------|
A|-7---7---7---7---4-|
E|--7---7---7---7-9--|

Verse 2:
G|---------------------------------------------------------------|
D|---------------------------------------------------------------|
A|-7---7---7---7---4---7---7---7---7------------7---7---2---2--2-|
E|--7---7---7---7-9-----7---7---7-----0-2-3---5---5--5---2---2---|

G|-------------------------|
D|-------------------------|
A|-7---7---4---7---7-------|
E|--7---7-9-----7----0-2-3-|

Bridge:
G|-----------------------------------------------------------------------|
D|-----------------------------------------------------------------------|
A|---------------------------------------------------------------2-2-2-2-|
E|-5-5-5-5-5-5-5-2-3-4---5-5-5-5-5-5-5-2-3-4---5-5-5-5-5-5-2-3-4---------|

G|----------------------------------------------------------------------|
D|----------------------------------------------------------------------|
A|-0-0-0-0---7456-7456-7456-7456-7456-7456-7456-7456---7---7---2---2--2-|
E|---------------------------------------------------5---7--5---2---2---|

G|-----------------------|
D|-----------------------|
A|-7---7---4---7---7---4-|
E|--7---7-9-----7---7-9--|

Solo: (Use Verse 2 Tab)

Repeat Bridge:

Verse 3:
G|--------------------------------------------------------------------|
D|--------------------------------------------------------------------|
A|-7---7---7---7---4---7---7---7---7------------7---7---2---2---BREAK-|
E|--7---7---7---7-9-----7---7---7-----0-2-3---5---5--5---2------------|


G|---------------------------------------------------|
D|---------------------------------------------------|
A|-7---7---4---7---7-----------7---7---2---2---BREAK-|
E|--7---7-9-----7----0-2-3---5---5--5----2-----------|

Outro:
G|---------------------------------------------------------------------|
D|----------------------------------------------2---2----2-------------|
A|-7---7---4---7---7------------------22222222----2---2----4-2-0-------|
E|--7---7-9-----7----0-2-3---55555555----------------------------4-2-0-|

            
            
Suggest correction
Creating personal tab
Creating personal tab
You can edit any tab online and save it as your Personal.

You can edit, replace or remove any tab part or add personal notes – all changes will be seen only by you.

Personal tabs can be accessed anytime from any device, even offline.
Learn more »
Give kudos to tab author, rate the tab!
1 2 3 4 5
comments
print report bad tab
guest
You may want to rate the tab now too:
select rating
Wanna post a correction for this tab? Suggest correction