Oops, an error
Loading. Please wait.

Well Be Alright bass

6,291 views 3 this week
no commentswrite comment
1 2 3 4 5
1 last vote to show rating
add to favorites
×
Save as Personal and add changes to this tab that will be seen only by you. Learn more ›
×
You can save this tab as Personal to edit and correct it or add notes. All changes will be seen only by you. Learn more »
launch autoscroll
font size
0
reset
guitar tuner
edit
Autoscroll
slow
fast
+/-
esc
set tempo
stop
Travie McCoy We'll Be Alright Bass Tab

In here youll find everything you need to play this song + a vid at the end of this 
tab being played


Intro


G|------------------------------------------------------------|
D|------------------------------------------------------------|
A|------------------------------------------------------------|
E|-7-7----7-7---5-7-7----7-7----7-9-9----9-9--2-4-7-7----7-7--|


Verse

G|------------------------------------------|
D|------------------------------------------|
A|------------------------------------------|
E|-0-2-3-4-4---7-7---9------4-4---7-7---9---|


Pre-chorus 1

G|-----------------------------------|
D|-----------------------------------|
A|-----------------------------------|
E|-0-0-0-0-0-0-0-0-2-2-2-2-2-2-2-2---|

Chorus

G|-----------------------------------------------------------|
D|-----------------------------------------------------------|
A|-----------------------------------------------------------|
E|-7-7----7-7---5-7-7---7-7---4-7-9-9---9-9-2-4--7-7---7-7---|


G|------------------------------------------------------------|
D|------------------------------------------------------------|
A|------------------------------------------------------------|
E|-5-7-7----7-7---5-7-7---7-7---4-7-9-9---9-9-2-4--7-7---7-7--|


Then play....

Verse

Pause

Verse


Pre-chorus 2

G|---------------------------------------|
D|---------------------------------------|
A|---------------------------------------|
E|-0-0-0-0-0-0-0-0-2-2-2-2/14-14-14-14---|


Play chorus again


Interlude....

G|-----------------------------------------------------------------------|
D|----------------------------------------------------9-7----------------|
A|--------------------------------------------------------9-7------------|
E|--5-7-7---7-7---7-9-9---9-9---9-2-2---2-2---2-7-7-----------10-9-7-5---|


Outro Chorus

G|-----------------------------------------------------------------------|x2|
D|-----------------------------------------------------9-7---------------|x2|
A|---------------------------------------------------------9-7-----------|x2|
E|-7-7----7-7---5-7-7---7-7---4-7-9-9---9-9-2-4--7-7-----------10-9-7-5--|x2|

or

G|------------------------------------------------------------|
D|------------------------------------------------------------|
A|------------------------------------------------------------|
E|-5-7-7----7-7---5-7-7---7-7---4-7-9-9---9-9-2-4--7-7---7-7--|

End

G|-----|
D|-----|
A|-----|
E|-7~--|

So i think thats everything :)


Have a vid here of this exact tab played above...

http://www.youtube.com/watch?v=8EEENfAoHN4

Can also be found here with a few other bass videos...

www.youtube.com/user/HarryHopkinson

Be gratefull if you could subscribe to me on you tube and let me know how you get on 
this tab

Have fun with it :)

            
            
Suggest correction
Creating personal tab
Creating personal tab
You can edit any tab online and save it as your Personal.

You can edit, replace or remove any tab part or add personal notes – all changes will be seen only by you.

Personal tabs can be accessed anytime from any device, even offline.
Learn more »
Give kudos to tab author, rate the tab!
1 2 3 4 5
comments
print report bad tab
guest
You may want to rate the tab now too:
select rating
Wanna post a correction for this tab? Suggest correction