Oops, an error
Loading. Please wait.

Turn tab

version 1
version 1

Whole song

Interactive

by Travis
15,532 views 12 this week
no commentswrite comment
1 2 3 4 5
x 4
add to favorites
×
Save as Personal and add changes to this tab that will be seen only by you. Learn more ›
×
You can save this tab as Personal to edit and correct it or add notes. All changes will be seen only by you. Learn more »
launch autoscroll
font size
0
reset
how to read this tab
guitar tuner
edit
Autoscroll
slow
fast
+/-
esc
set tempo
stop
Turn acoustic;-Travis 

This is just tabbed for one guitar an acoustic one preferably without 
a capo
I no it really is played with a capo at the 2nd fret but I had to remove it so I 
could add the intro  
It’s a great song by a great band so enjoy  

Standard tuning 

INTRO

e|------------------------------|----------------------------------|
B|-------5------7-------9-9---9-|------5-------7------9-----9------|
G|---4-----4/6-----6/8--------8-|--4------4/6----6-8--------8------|
D|------------------------------|----------------------------------|
A|------------------------------|----------------------------------|
E|------------------------------|----------------------------------|


Verse 1

E                          A
I want to see what people saw,
                          E
I want to feel like I felt before,
E                       A
I\\\'d like to see the Kingdom come,
                        B
I want to feel forever young

Pre-chorus 1
E
I want to sing, to sing my song.
            B          A                   
I want to live in a world where I belong,
F#m
I want to live, I will survive,
                      B  
And I believe that it won't be very long.

Chorus 1

       A         B7
If we turn turn____ turn
E         A                     B
--turn___turn_____turn__turn___________turn  
E             A         B 
________If we turn turn______turn_________
E             A                    B
--turn____turn_____we might learn______learn

Verse 2

So wheres the stars?
Up in the sky.
And what’s the moon?
A big balloon.
We'll never know unless we grow,
There's so much love outside the door.

Pre-chorus 2
I want to sing, To sing my song.
I want to live in a world where I'll be strong.
I want to live, I will survive.
And I believe that it won't be very long.

chorus 2 

       A         B7
If we turn turn____ turn
E         A                     B
--turn___turn_____turn__turn___________turn  
E             A         B 
________If we turn turn______turn_________
E             A                    B
--turn____turn_____we might learn______learn
A           B         E
Learn____________learn_____________________ 


Bridge 

B
We've got to turn, we've got to turn

A    B | E    A | B   E  
       
      A         
If we learn    
      B
Learn to turn           

Outro 
E|------------------------------|----------------------------------|
B|-------5------7-------9-9---9-|------5-------7------9-----9------|
G|---4-----4/6-----6/8--------8-|--4------4/6----6-8--------8------|
D|------------------------------|----------------------------------|
A|------------------------------|----------------------------------|
E|------------------------------|----------------------------------|


e|------------------------------|----------------------------------|
B|-------5------7-------9-9---9-|------5-------7-------------------|
G|---4-----4/6-----6/8--------8-|--4------4/6----6/4---------------|
D|------------------------------|----------------------------------|
A|------------------------------|----------------------------------|
E|------------------------------|----------------------------------|

            
            
Suggest correction
Creating personal tab
Creating personal tab
You can edit any tab online and save it as your Personal.

You can edit, replace or remove any tab part or add personal notes – all changes will be seen only by you.

Personal tabs can be accessed anytime from any device, even offline.
Learn more »
comments
print report bad tab
guest
Wanna post a correction for this tab? Suggest correction