Oops, an error
Loading. Please wait.

La Salamandra bass

978 views 1 this week
1 commentread comment
1 2 3 4 5
2 more votes to show rating
add to favorites
×
Save as Personal and add changes to this tab that will be seen only by you. Learn more ›
×
You can save this tab as Personal to edit and correct it or add notes. All changes will be seen only by you. Learn more »
launch autoscroll
font size
0
reset
guitar tuner
edit
Autoscroll
slow
fast
+/-
esc
set tempo
stop
TRE ALLEGRI RAGAZZI MORTI - LA SALAMANDRA
ALBUM: LA SECONDA RIVOLUZIONE SESSUALE (2007)
BASSIST: ENRICO MOLTENI

INTRO

E -----------------3--3---3-----3-3-| X2
A --5---5------5--------2---3-2-----|
D ----4----5-4----------------------|
G ----------------------------------|

E ----------------------------------| X2
A --5---5------5--------------------|
D ----4----5-4---5-5---5-----5-4----|
G -------------------4---5-4--------|

VERSE

E -------------------------------------------------------------------------|
A -3/5--5--5/7-----------5-5--5/7-----------5-5--5/7---------------------7-|
D -------------5-5--/7/5----------5-5--/7/5----------5-5--/7-7--7-5--7-5---|
G -------------------------------------------------------------------------|

CHORUS

E ----------------------------------|
A --5---5------5--------------------|
D ----4----5-4---5-5---5-----5-4----|
G -------------------4---5-4--------|

L'INCREDIBILE SPETTACULO DELLA VIDA, L'INCREDIBILE SPETTACULO DELLA MUERTE.
TARM

JAH WOBBLE IS GOd!

            
            
Suggest correction
Creating personal tab
Creating personal tab
You can edit any tab online and save it as your Personal.

You can edit, replace or remove any tab part or add personal notes – all changes will be seen only by you.

Personal tabs can be accessed anytime from any device, even offline.
Learn more »
Give kudos to tab author, rate the tab!
1 2 3 4 5
comments
print report bad tab
1 comment total.
0 reply
Basterd4 34 Aug 30, 2015 09:03 AM

AMICO HAI DAVVERO MESSO IL TAB AL CONTRARIO. DAVVERO

guest
You may want to rate the tab now too:
select rating
Wanna post a correction for this tab? Suggest correction