Oops, an error
Loading. Please wait.

Dont Believe It All chords

version 3
version 3

Whole song

Interactive

249 views 1 this week
no commentswrite comment
1 2 3 4 5
3 more votes to show rating
add to favorites
×
Save as Personal and add changes to this tab that will be seen only by you. Learn more ›
×
You can save this tab as Personal to edit and correct it or add notes. All changes will be seen only by you. Learn more »
launch autoscroll
font size
0
reset
transpose
0
reset
display chords
guitar tuner
edit
Autoscroll
slow
fast
+/-
esc
set tempo
stop
Strumming
There is no strumming pattern for this song yet. and get +5 IQ
Treble Charger
Don't Believe It All
Detox
2002
Submitted by: paramore_fans@yahoo.com

This is 100% correct!!!

Key: E

Tuning: Standard EADGBe

Chords used:
E -   022100
B -   x24442
C#m - x46654
A -   x02220
F#m - 244222


Intro:

Silence: 

Greig: A--E-- x2

Bill:
        A        E        A        E
e|-------------|---|-------------|---|
B|-------------|---|-------------|---|
G|-1---1-------|-1-|-1---1-------|---|
D|---4---4-2-4-|---|---4---4-2-4-|-2-|
A|-------------|---|-------------|---|
E|-------------|---|-------------|---|


Distortion: 

Greig: A--E--B--C#m-B- x2

Bill:
         A                E          B       C#m         B
E|----------------|----------------|----|-----------|---------|
B|-----------9----|-----------9----|----|-10p9------|---------|
G|-9h11p9h11----9-|-9h11p9h11----9-|-11-|------11p9-|-11/13-9-|
D|----------------|----------------|----|-----------|---------|
A|----------------|----------------|----|-----------|---------|
E|----------------|----------------|----|-----------|---------|

         A                E          B       C#m         B
E|----------------|----------------|----|-----------|---------|
B|-----------9----|-----------9----|----|-12p10-9---|---------|
G|-9h11p9h11----9-|-9h11p9h11----9-|-11-|---------9-|-11/13-9-|
D|----------------|----------------|----|-----------|---------|
A|----------------|----------------|----|-----------|---------|
E|----------------|----------------|----|-----------|---------|


Verse 1:
A
  Halfway from 
C#m         B
midnight to dawn 
A               C#m
  Let's just forget 
         B
and move on 
A
Everything you say
   C#m
it never seems to change 
  B
a thing in sight 
    A
The things you never did 
     C#m
Were even worse 
       B
considering what's right
(All this time I've)


Bill: Verses x2
   A  C#m          B
e|---|---|----5p4--0----2p0-|
B|---|---|-----------4------|
G|-2-|-6-|-4----------------|
D|-2-|-6-|-4----------------|
A|-0-|-4-|-2----------------|
E|---|---|------------------|

   A  C#m          B
e|---|---|------0--0h2--2h4-|
B|---|---|----4-------------|
G|-2-|-6-|-4----------------|
D|-2-|-6-|-4----------------|
A|-0-|-4-|-2----------------|
E|---|---|------------------|


Refrain 1:
A                 E
Been the one you string along 
    A            E
You tie me up to bring along 
A          F#m             B
Never once getting in your way 


Chorus 1:
A
  What you say 
   E
is unbelievable 
B
  I can't stand to 
C#m     B
hear it once more 
A                E
  What you did I don't 
believe it all 
B
  What's worse you 
C#m    B       A  E B C#m B
can't even say why


Verse 2:
A            C#m
  Half of my life 
        B
flashes by 
A
  Just look me 
 C#m            B
straight in the eye 
A
  Words are kinda cheap 
    C#m
The company you keep 
   B
is more to blame 
    A
The things you always did 
     C#m
They never seemed to
      B
me to be as tame 
(All this time I)


Refrain 2:
A
Tried to leave 
    E
and never could 
A           E
Wonder if I ever would 
A
Knowing you'd be 
 F#m           B
standing in my way so 


Chorus 2:
A
  What you say 
   E
is unbelievable 
B
  I can't stand to 
C#m     B
hear it once more 
A                E
  What you did I don't 
believe it all 
B
  What's worse you 
C#m    B       A  E B
can't even say why
    C#m    B       A  E B
you can't even say why
    C#m    B
you can't even say


Guitar Solo: 

Greig: 
      A         E         B      C#m    B
e|---------|---------|---------|-----|-----|
B|---------|---------|---------|-----|-----|
G|-2-2-2-2-|---------|-4-4-4-4-|-6-6-|-4-4-|
D|-2-2-2-2-|-2-2-2-2-|-4-4-4-4-|-6-6-|-4-4-| x2
A|-0-0-0-0-|-2-2-2-2-|-2-2-2-2-|-4-4-|-2-2-|
E|---------|-0-0-0-0-|---------|-----|-----|


Bill: x2
         A                   E
e|---12----------|----------------------|
B|-9-----12-10-9-|-9-10-12--12h14p12p10-|
G|---------------|----------------------|
D|---------------|----------------------|
A|---------------|----------------------|
E|---------------|----------------------|

            B               C#m     B
e|----------9h12-----9-|-12-------|-12-|
B|-12p10h12-------12---|-----9h10-|----|
G|---------------------|----------|----|
D|---------------------|----------|----|
A|---------------------|----------|----|
E|---------------------|----------|----|


Greig:
         A               E
e|--------------|----------------|
B|------9-------|-9--9h10p9------|
G|-9h11----9h11-|-----------11p9-|
D|--------------|----------------|
A|--------------|----------------|
E|--------------|----------------|

              B                  C#m        B
e|-------------------------|-------------|------|
B|-------------------------|-------------|------|
G|-8-8-8-9-9-9-11-11-11-13-|-13-13-13-11-|-9h11-|
D|-------------------------|-------------|------|
A|-------------------------|-------------|------|
E|-------------------------|-------------|------|

          A                  E
e|---------12-------|-12---------------|
B|----9h10-----9h10-|-----9h10-12-10-9-|
G|-9----------------|------------------|
D|------------------|------------------|
A|------------------|------------------|
E|------------------|------------------|

              B                  C#m        B
e|-------------------------|-------------|------|
B|-------------------------|-------------|------|
G|-8-8-8-9-9-9-11-11-11-13-|-13-13-13-11-|-9h11-|
D|-------------------------|-------------|------|
A|-------------------------|-------------|------|
E|-------------------------|-------------|------|

   A      E              A              E
e|---|----------|-----------------|----------|
B|---|----------|-----------------|----------|
G|-9-|----------|-2-2-2-2-2-2-2-2-|----------|
D|---|-2-2--2-2-|-2-2-2-2-2-2-2-2-|-2-2--2-2-|
A|---|-2-2--2-2-|-0-0-0-0-0-0-0-0-|-2-2--2-2-|
E|---|-0-0--0-0-|-----------------|-0-0--0-0-|

Bill:
      A         E         B      C#m    B
e|---------|---------|---------|-----|-----|
B|---------|---------|---------|-----|-----|
G|-2-2-2-2-|---------|-4-4-4-4-|-6-6-|-4-4-|
D|-2-2-2-2-|-2-2-2-2-|-4-4-4-4-|-6-6-|-4-4-| x2
A|-0-0-0-0-|-2-2-2-2-|-2-2-2-2-|-4-4-|-2-2-|
E|---------|-0-0-0-0-|---------|-----|-----|

          A              E               A               E
e|-----------------|------------|-----------------|------------|
B|-----------------|------------|-----------------|------------|
G|-2-2-2-2-2-2-2-2-|-9/11--11\9-|-2-2-2-2-2-2-2-2-|-9/11--11\9-|
D|-2-2-2-2-2-2-2-2-|-x/-x---x\x-|-2-2-2-2-2-2-2-2-|-x/-x---x\x-|
A|-0-0-0-0-0-0-0-0-|-7/-9---9\7-|-0-0-0-0-0-0-0-0-|-7/-9---9\7-|
E|-----------------|------------|-----------------|------------|


Bridge:
A
Like it was ten years ago 
E
What's forgotten down below 
F#m                           B
Some things that you'll never know 


Breakdown: until chorus 3

Greig: Palm mute
A--E--B--C#m-B-

Bill:
          A                 E                 B           C#m     B
e|-----------------|-----------------|-----------------|-------|------|
B|-----------------|-----------------|-----------------|-------|------|
G|---9-----9-----9-|---9-----9-----9-|-----------------|-------|------|
D|-7---7-7---7-7---|-6---6-6---6-6---|---9-----9-----9-|-----9-|----9-| x4
A|-----------------|-----------------|-9---9-9---9-9---|-11----|-9----|
E|-----------------|-----------------|-----------------|-------|------|


Chorus 3:
A                E       B
  What you say I can't believe
  C#m        B
I wanna know what's right
(Repeat x3)


Chorus 4:
A
  What you say 
   E
is unbelievable 
B
  I can't stand to 
C#m     B
hear it once more 
A                E
  What you did I don't 
believe it all 
B
  What's worse you 
C#m    B
can't even say
A
  What you say 
   E
is unbelievable 
B
  I can't stand to 
C#m     B
hear it once more 
A                E
  What you did I don't 
believe it all 
B
  What's worse you 
C#m    B
can't even say


Bill: Chorus 4 Guitar Solo x2
         A                   E
e|---12----------|----------------------|
B|-9-----12-10-9-|-9-10-12--12h14p12p10-|
G|---------------|----------------------|
D|---------------|----------------------|
A|---------------|----------------------|
E|---------------|----------------------|

              B                C#m     B
e|-------------9h12-----9-|-12-------|-12-|
B|-12p10h12p10-------12---|-----9h10-|----|
G|------------------------|----------|----|
D|------------------------|----------|----|
A|------------------------|----------|----|
E|------------------------|----------|----|


Outro: Guitar Solo

Greig:
            A               E          B           C#m         B
e|--------------------|----------|-----------|-12-11-9----|-9-11----|
B|--------------------|----12--9-|-----12----|---------12-|------12-|
G|-----------8----8-9-|-11-------|-11------9-|------------|---------|
D|-9-11-11-9---11-----|----------|-----------|------------|---------|
A|--------------------|----------|-----------|------------|---------|
E|--------------------|----------|-----------|------------|---------|

            A             E          B          C#m         B
e|-11h12p11h14-------|---------|-----------|-----------|---------|
B|--------------9h10-|-9-12----|-----12----|-10p9------|---------|
G|-------------------|-------9-|-11------9-|------11p9-|-11/13-9-|
D|-------------------|---------|-----------|-----------|---------|
A|-------------------|---------|-----------|-----------|---------|
E|-------------------|---------|-----------|-----------|---------|

     A      E     A      E
e|--------|---|--------|----|
B|--------|---|--------|----|
G|-11--13-|-9-|-11--11-|-13-|
D|--------|---|--------|----|
A|--------|---|--------|----|
E|--------|---|--------|----|


Bill: A--E--B--C#m-B- x2, A--E--A--E(hold)

            
            
Suggest correction
Creating personal tab
Creating personal tab
You can edit any tab online and save it as your Personal.

You can edit, replace or remove any tab part or add personal notes – all changes will be seen only by you.

Personal tabs can be accessed anytime from any device, even offline.
Learn more »
Give kudos to tab author, rate the tab!
1 2 3 4 5
comments
print report bad tab
guest
You may want to rate the tab now too:
select rating
Wanna post a correction for this tab? Suggest correction