Oops, an error
Loading. Please wait.

How She Died chords

version 2
version 2

Whole song

Interactive

248 views 1 this week
no commentswrite comment
1 2 3 4 5
2 more votes to show rating
add to favorites
×
Save as Personal and add changes to this tab that will be seen only by you. Learn more ›
×
You can save this tab as Personal to edit and correct it or add notes. All changes will be seen only by you. Learn more »
launch autoscroll
font size
0
reset
transpose
0
reset
simplify chords
display chords
guitar tuner
edit
Autoscroll
slow
fast
+/-
esc
set tempo
stop
Strumming
There is no strumming pattern for this song yet. and get +5 IQ
Treble Charger
How She Died
Maybe Its Me
1997
Submitted by: paramore_fans@yahoo.com

Key: C, Eb

Tuning: Standard EADGBe

Chords used:
C -   x32010
C/E - 032xxx
F -   133211
G# -  466544
Eb -  x68886
Bb -  x13331
Gm -  355333
Fm -  133111
F# -  244322
E -   022100


Intro:

Greig:
      C         F         G         F
e|-----0---|-3-0-----|-3-3-3-3-|-1-1-1-1-|
B|---1---1-|-----1---|-0-0-0-0-|-1-1-1-1-|
G|-0-------|-------0-|-0-0-0-0-|-2-2-2-2-|
D|---------|---------|-0-0-0-0-|-3-3-3-3-| x4
A|---------|---------|-2-2-2-2-|-3-3-3-3-|
E|---------|---------|-3-3-3-3-|-1-1-1-1-|


Bill:
      C         F       G      F
e|----8----|-5-------|-----|-------|
B|-8-----8-|---8-6-8-|-5-6-|-5-----|
G|---------|---------|-----|---7-5-|
D|---------|---------|-----|-------| x2
A|---------|---------|-----|-------|
E|---------|---------|-----|-------|

Verse 1:
            C         C/E
You got the best of me
          F           G#
It didn't take so long
               C             C/E
The things you put me through
          F     G#
Seemed to be so wrong
C     C/E     F
  You did not lie
    G#           C
In spite of your truth
    C/E        F
You said you'd try
    G#            Eb--
You can not prove it


Chorus 1:
  Bb    G# Eb
I close my eyes
              Bb
I don't wanna find
    G#      Eb
out how she died
    Bb   G# Eb
The fool is bright
You can't expect
   Bb    G#    Gm
to turn away tonight


Interlude:

Greig: C/E-F-G--C/E-F-G-G#(hold)

Bill:
    C/E        F             G
e|--------|---------|---------3-------|
B|--------|---------|-----------3---3-|
G|-4--2-0-|---------|-------------4---|
D|--------|-----3---|-----5-----------|
A|--------|---3---3-|---5---5---------|
E|--------|-1-------|-3---------------|

    C/E        F         G           G#
e|--------|---------|---------|-------------|
B|--------|---------|---------|-------------|
G|-4--2-0-|---------|---------|-12-12-12-12-|
D|--------|-----3---|-----5---|-13-13-13-13-|
A|--------|---3---3-|---5---5-|-11-11-11-11-|
E|--------|-1-------|-3-------|-------------|


Verse 2:
                C         C/E
You've seen the last of me
              F           G#
Don't have to take my hand
              C          C/E
You shouldn't try so hard
           F     G#
So hard to understand
C   C/E     F
  I see the end
     G#          C
It's waiting for me
   C/E      F
No time to spend
   G#         Eb--
To drown in moments


Bill: In "I see the end..."
e|---0-3-0---0-3-----0-3-0---------|
B|-3-------4-----4-3-------3-4-3-4-|
G|---------------------------------|
D|---------------------------------| x2
A|---------------------------------|
E|---------------------------------|


(Repeat Chorus 1)


Bridge:
C        Eb
I can't stand
   Bb
to agonize
   C
On what I've
Eb    Bb
lied apologize
    G#     Eb
You fall behind
     Bb
your sense of place
     G#           Fm
It's anywhere and every way


Guitar Solo:

Greig: C-C/E-F-G#- x4, Eb--

Bill: Solo
   C  C/E  F  G#  C  C/E  G#
e|---|---|-8-|--|---|---|----|----|
B|-8-|---|---|--|-9-|-8-|----|----|
G|---|---|---|--|---|---|-10-|-8--|
D|---|---|---|--|---|---|----|----|
A|---|---|---|--|---|---|----|----|
E|---|---|---|--|---|---|----|----|

      C           C/E            F           G#
e|----11----|-------------|-------------|---------|
B|-12----12-|-13-12-10----|-10----------|---------|
G|----------|----------12-|----12-11-10-|-7-8-----|
D|----------|-------------|-------------|-----5-7-|
A|----------|-------------|-------------|---------|
E|----------|-------------|-------------|---------|

     C    C/E     F         G#               Eb
e|-10--8-|---|-7--8----|----------|-----------------------|
B|-------|---|-------8-|-9-8------|-----------------------|
G|-------|---|---------|-----10-8-|-7--8--7h8p7h8p7h8p7h8-|
D|-------|---|---------|----------|-----------------------|
A|-------|---|---------|----------|-----------------------|
E|-------|---|---------|----------|-----------------------|


Chorus 2:
  Bb    G# Eb
I close my eyes
              Bb
I don't wanna find
    G#      Eb
out how she died
    Bb   G# Eb
The fool is bright
You can't expect
   Bb    G#    Gm   Eb
to turn away tonight


Chorus 3:
  Bb    G# Eb
I close my eyes
              Bb
I don't wanna find
    G#      Eb
out how she died
You can't expect
   Bb    G#    Gm   F# Fm E(hold)
to turn away tonight

            
            
Suggest correction
Creating personal tab
Creating personal tab
You can edit any tab online and save it as your Personal.

You can edit, replace or remove any tab part or add personal notes – all changes will be seen only by you.

Personal tabs can be accessed anytime from any device, even offline.
Learn more »
Give kudos to tab author, rate the tab!
1 2 3 4 5
comments
print report bad tab
guest
You may want to rate the tab now too:
select rating
Wanna post a correction for this tab? Suggest correction