Oops, an error
Loading. Please wait.

Arm Yourself tab

version 1
version 1

Whole song

1,762 views 15 this week
3 commentsread comments
1 2 3 4 5
x 4
add to favorites
×
Save as Personal and add changes to this tab that will be seen only by you. Learn more ›
×
You can save this tab as Personal to edit and correct it or add notes. All changes will be seen only by you. Learn more »
launch autoscroll
font size
0
reset
how to read this tab
guitar tuner
edit
Autoscroll
slow
fast
+/-
esc
set tempo
stop
Tremonti - "Arm Yourself"
From the album "Cauterize"
tuning - C Standard (C F Bb Eb G C)
tabbed by jjhand

Main Riff:  P or PM = palm mutes

   play 3x
C |--------------------------|-------------------------||
G |--------------------------|-------------------------||
Eb|--------------------------|-------------------------||
Bb|--------------------------|-------------------------||
F |--------------------------|-------------------------||
C |-0---0-0--0--0-0-0--0--0--|-4-4-4-0-0-0-1-1-1-4-4-4-||
          P  P  P P P  P  P    PM all*****************

End of main riff
|--------------------------|--------------|
|--------------------------|--------------|
|--------------------------|--------------|
|--------------------------|-PH-----------|
|--------------------------|-5b7r---------|
|-0---0-0--0--0-0-0--0--0--|--------------|
        P  P  P P P  P  P   


For Verse, play Main Riff 3x as before then add these bars before the repeat:

|-------------|--------------|
|-------------|--------------|
|-------------|--------------|
|-5-----------|--------------|
|-3-----------|-5------------|
|-------------|-3------------|

Lyrics:
"Arm Yourself,   Lick your wounds
While you can... Make your stand and then pray you don't break
Like your own,   they arm themselves
Ignore their wounds... kick down doors and attack when they break"




PreChorus Bars - Main Riff plays with Second Guitar playing higher harmony:            

|--------------------------|----------------------------||
|--------------------------|-9-9-9----------------9-9-9-||
|--------------------------|-------9-9-9-10-10-10-------||
|--------------------------|----------------------------||
|--------------------------|----------------------------||
|-0---0-0--0--0-0-0--0--0--|----------------------------||
        P  P  P P P  P  P    PM all********************


Chorus
|-------------------|------------------|-----------------|-----------------------|
|-------------------|------------------|-----------------|-----------------------|
|-------------------|------------------|-----------------|-----------------------|
|-------------------|------------------|-----------------|-----------------------|
|-2-----------------|--------10-10-10-10-----------------|-----------------------|
|-0--------7--7--7--|-8----------------|-3------3--2--1--|-0------8-8-0-0-7-7-0-0|
                              PM*****                                 PM*     PM*
"They say a man who fears will suffer twice, the fear has surely died"

|-------------------|------------------|-----------------|
|-------------------|------------------|-----------------|
|-------------------|------------------|-----------------|
|-------------------|------------------|-----------------|
|-2-----------------|-------10-10-10-10|-----------------| back to Main Riff
|-0--------7--7--7--|-8----------------|-3------3--2--1--|

I throw a curse right into the rising sun, today this wil all be done"



Play Verse and Chorus again

Verse 2 Lyrics:
"Hope that fades... is on your side
Risk your life, plan escape every moment you wake
By yourself... alone again
just like before, strength you held it is yours no more"



Bridge Pt 1, slower tempo (one half the previous tempo but 6 beats per bar):

play 2x
|-------------------|------------------|
|-------------------|------------------|
|-------------------|------------------|
|-------------------|------------------|
|-------------------|------------------|
|-0-----------------|-(0)---------1--1-|


Pt 2:   Played 4x, then again through Solo section
|-0---0------0---------|--------------0-----0-----|
|-0-----0----0---------|--------------0-----0-----|
|-1-------1--2---------|--------------4-----2-----|
|-2----------3---------|--------------5-----3-----|
|----------------------|--------------------------|
|----------------------|--------------------------|
  lowest string is picked softly here

Lyrics:
"No, you never know how, it aint like here
You're never brought down, when it comes
you'll never know when, but I've learned
things I never knew then... ohhhh"



Solo - again 6 beats per bar, so look at timing

|--------12NH--------------0-------0-----|------0-0-7----------0--0--0--0---0--0-|
|------------------17p15\12--------------|------------10~------8-10-12-12b-12-10-|
|-7h9-/16-------------------16p12\9------|--------7------------------------------|
|-----------------------------------12p9\7/9-------------------------------------|
|----------------------------------------|---------------------------------------|
|----------------------------------------|---------------------------------------|

|-0------0--0---0---0-------------------|----------0------0---------0----0---|
|-12-----12-10--8-3b5---------12-10--10-|--9~--------0----0---------0----0---|
|---------------------------------------|--------------1--2---------4----2---|
|------------------------10/12-----10---|--9~--------------------------------|
|---------------------------------------|------------------------------------|
|---------------------------------------|------------------------------------|



Play Chorus 2x



Play main riff to end song

Second part plays harmony on ending like this:
C |--------------------------|-------------------------||
G |--------------------------|-------------------------||
Eb|--------------------------|-4-4-4-1-1-1-2-2-2-4-4-4-||
Bb|--------------------------|-------------------------||
F |--------------------------|-------------------------||
C |-0---0-0--0--0-0-0--0--0--|-------------------------||


************************************
KEY
| /   slide up
| \   slide down
| h   hammer-on
| p   pull-off
| ~   vibrato
| NH  natural harmonic
| x   Mute note
| b   Bend

************************************

            
            
Suggest correction
Creating personal tab
Creating personal tab
You can edit any tab online and save it as your Personal.

You can edit, replace or remove any tab part or add personal notes – all changes will be seen only by you.

Personal tabs can be accessed anytime from any device, even offline.
Learn more »
comments
print report bad tab
3 comments total.
0 reply
Patrijz 40 Oct 13, 2015 10:32 AM

Little solo correction based on a YT video:

|--------12*---------------0--------------|------0-0-7----------0--0--0--0---0--0-|
|--------12*-------17p15\12--------0------|--------0---10~------8-10/12-12b-12-10-|
|—7h9-/16-------------------16p12\9-------|------9--------------------------------|
|-----------------------------------12p9\7|/9-------------------------------------|
|-----------------------------------------|---------------------------------------|
|-----------------------------------------|---------------------------------------|

|-0------0--0---0---0-------------------|----------0------0---------0----0---|
|-12-----12-10----3b5---------12-10--10-|--9~--------0----0---------0----0---|
|---------------------------------------|--------------1--2---------4----2---|
|------------------------10/12-----10---|--9~--------------------------------|
|---------------------------------------|------------------------------------|
|---------------------------------------|------------------------------------|

0 reply
jjhand 18,994 Oct 14, 2015 03:09 PM

I think a few of your notes are right but kept what I clearly hear in the recording. I wrote this tab quickly so its easy to miss a thing or two.

+1 reply
rockyowitz 10 Oct 23, 2015 06:42 AM

This is great. My only correction would be in the pre-verse

|-------------|--------------|
|-------------|--------------|
|-------------|--------------|
|-5-----------|--------------|
|-3-----------|-5------------|
|-3-----------|-3------------|


I keep hearing that double stop of sorts, rather than that normal power chord there. It reminds me of how Sylosis gets their heavy sound. Anyhow, that's what I'm hearing, this is a great tab otherwise.

guest
You may want to rate the tab now too:
select rating
Wanna post a correction for this tab? Suggest correction