Oops, an error
Loading. Please wait.

Betray Me tab

version 1
version 1

Whole song

Interactive

2,372 views 6 this week
no commentswrite comment
1 2 3 4 5
x 8
add to favorites
×
Save as Personal and add changes to this tab that will be seen only by you. Learn more ›
×
You can save this tab as Personal to edit and correct it or add notes. All changes will be seen only by you. Learn more »
launch autoscroll
font size
0
reset
how to read this tab
guitar tuner
edit
Autoscroll
slow
fast
+/-
esc
set tempo
stop
Title: Betray Me
Artist: Tremonti
Album: Dust (2016)
Author: Amerijckbeheerder


[Rhythm] 

(The lead fills are below this tab)


[Intro 1]

D|--------------------------------------------------|--------------------------------------------|
A|--------------------------------------------------|--------------------------------------------|
F|--------------------------------------------------|--------------------------------------------|
C|--------------------------------------------------|----------------------------3---------------|
G|-3-3-3-3---------------------5-----------3--------|--------------------------------------------|
D|---------4---0--0-0-0--3--0-----0--1--0-----0--1--|-1--0----0--0--0-0-0--0--1-----1--0---0--0--|
PM * * * *     *  * * *     *     *     *     *               *  *  * * *                  *  *    

D|--------------------------------------------------|--------------------------------------------|
A|--------------------------------------------------|--------------------------------------------|
F|--------------------------------------------------|--------------------------------------------|
C|--------------------------------------------------|----------------------------3---------------|
G|-3-3-3-3---------------------5-----------3--------|--------------------------------------------|
D|---------4---0--0-0-0--3--0-----0--1--0-----0--1--|-1--0----0--0--0-0-0--0--1-----1--0---0--0--|
PM * * * *     *  * * *     *     *     *     *               *  *  * * *                  *  *     

D|--------------------------------------------------|--------------------------------------------|
A|--------------------------------------------------|--------------------------------------------|
F|--------------------------------------------------|--------------------------------------------|
C|--------------------------------------------------|----------------------------3---------------|
G|-3-3-3-3---------------------5-----------3--------|--------------------------------------------|
D|---------4---0--0-0-0--3--0-----0--1--0-----0--1--|-1--0----0--0--0-0-0--0--1-----1--0---0--0--|
PM * * * *     *  * * *     *     *     *     *               *  *  * * *                  *  *     

D|--------------------------------------------------|--------------------------------------------|
A|--------------------------------------------------|--------------------------------------------|
F|--------------------------------------------------|--------------------------------------------|
C|--------------------------------------------------|----------------------------3---------------|
G|-3-3-3-3---------------------5-----------3--------|--------------------------------------------|
D|---------4---0--0-0-0--3--0-----0--1--0-----0--1--|-1--0----0--0--0-0-0--0--1-----1--0---------|
PM * * * *     *  * * *     *     *     *     *               *  *  * * *                   


[Verse 1.1]

D|--------------------------------------------------|--------------------------------------------|
A|--------------------------------------------------|--------------------------------------------|
F|--------------------------------------------------|--------------------------------------------|
C|--------------------------------------------------|----------------------------3---------------|
G|-3-3-3-3---------------------5-----------3--------|--------------------------------------------|
D|---------4---0--0-0-0--3--0-----0--1--0-----0--1--|-1--0----0--0--0-0-0--0--1-----1--0---0--0--|
PM * * * *     *  * * *     *     *     *     *               *  *  * * *                  *  *   


D|--------------------------------------------------|--------------------------------------------|
A|--------------------------------------------------|--------------------------------------------|
F|--------------------------------------------------|--------------------------------------------|
C|--------------------------------------------------|----------------------------3---------------|
G|-3-3-3-3---------------------5-----------3--------|--------------------------------------------|
D|---------4---0--0-0-0--3--0-----0--1--0-----0--1--|-1--0----0--0--0-0-0--0--1-----1--0---------|
PM * * * *     *  * * *     *     *     *     *               *  *  * * *                    

[Verse 1.2]

D|-----------------------------------------|----------------------------------------------|
A|---------4------4------------2------2----|----------------------------------------------|
F|---------5------5------------2------2----|----------------------------------------------|
C|---------5------5------------2------2----|------------2---2--------------3--------------|
G|---------3------3------------0------0----|------------2---2-----------------------------|
D|-0-0-0-0-------------0-0-0-0-------------|-0-0-0-0-0--0---0--0--0--1--0-----0--1--0--0--|
PM * * * *             * * * *               * * * * *         *                    *  * 

D|-----------------------------------------|----------------------------------------------|
A|---------4------4------------2------2----|----------------------------------------------|
F|---------5------5------------2------2----|----------------------------------------------|
C|---------5------5------------2------2----|------------2---2--------------3--------------|
G|---------3------3------------0------0----|------------2---2-----------------------------|
D|-0-0-0-0-------------0-0-0-0-------------|-0-0-0-0-0--0---0--0--0--1--0-----0--1--0--0--|
PM * * * *             * * * *               * * * * *         *                    *  * 

[Pre Chorus}

D|--------|--------|--------|-------------|
A|--------|--------|--------|-------------|
F|--------|-5------|--------|-5-----------|
C|-2------|-5------|-2------|-5-----------|
G|-2------|-3------|-2------|-3------10\--|
D|-0------|--------|-0------|--------10\--|

[Chorus 1]

D|--------------------------------|--------------------------------|---------------------------------------|
A|--------------------------------|--------------------------------|---------------------------------------|
F|-4----4----4--4---4---4--4---4--|-5----5----5--5---5---5--5---5--|---------------------------------------|
C|-2----2----2--2---2---2--2---2--|-5----5----5--5---5---5--5---5--|-5----5----5--5---5---5--5---5---------|
G|-2----2----2--2---2---2--2---2--|-3----3----3--3---3---3--3---3--|-5----5----5--5---5---5--5---5---------|
D|-0----0----0--0---0---0--0---0--|--------------------------------|-3----3----3--3---3---3--3---3---------|


D|--------------------------------|---------------------------------------|--------------------------------|
A|--------------------------------|---------------------------------------|--------------------------------|
F|-7----7----7--7---7---7--7---7--|-------------4----4--4---4---4--4---4--|-5----5----5--5---5---5--5---5--|
C|-7----7----7--7---7---7--7---7--|-------------2----2--2---2---2--2---2--|-5----5----5--5---5---5--5---5--|
G|-5----5----5--5---5---5--5---5--|-2--2--------2----2--2---2---2--2---2--|-3----3----3--3---3---3--3---3--|
D|--------------------------------|-0--0-----0--0----0--0---0---0--0---0--|--------------------------------|
PM                                  *  *     * 

D|--------------------------------|--------------------------------------|
A|--------------------------------|--------------------------------------|
F|--------------------------------|-7----7----7--------------------------|
C|-5----5----5--5---5---5--5---5--|-7----7----7--------------------------|
G|-5----5----5--5---5---5--5---5--|-5----5----5--------------------------|
D|-3----3----3--3---3---3--3---3--|--------------0--0--0--0--0-----------|
PM                                               *  *  *  *  *


[Main Riff]

D|--------------------------------------------------|--------------------------------------------|
A|--------------------------------------------------|--------------------------------------------|
F|--------------------------------------------------|--------------------------------------------|
C|--------------------------------------------------|----------------------------3---------------|
G|-3-3-3-3---------------------5-----------3--------|--------------------------------------------|
D|---------4---0--0-0-0--3--0-----0--1--0-----0--1--|-1--0----0--0--0-0-0--0--1-----1--0---0--0--|
PM * * * *     *  * * *     *     *     *     *               *  *  * * *                  *  *  


D|--------------------------------------------------|--------------------------------------------|
A|--------------------------------------------------|--------------------------------------------|
F|--------------------------------------------------|--------------------------------------------|
C|--------------------------------------------------|----------------------------3---------------|
G|-3-3-3-3---------------------5-----------3--------|--------------------------------------------|
D|---------4---0--0-0-0--3--0-----0--1--0-----0--1--|-1--0----0--0--0-0-0--0--1-----1--0---------|
PM * * * *     *  * * *     *     *     *     *               *  *  * * *                   


[Verse 2.1]

D|--------------------------------------------------|--------------------------------------------|
A|--------------------------------------------------|--------------------------------------------|
F|--------------------------------------------------|--------------------------------------------|
C|--------------------------------------------------|----------------------------3---------------|
G|-3-3-3-3---------------------5-----------3--------|--------------------------------------------|
D|---------4---0--0-0-0--3--0-----0--1--0-----0--1--|-1--0----0--0--0-0-0--0--1-----1--0---0--0--|
PM * * * *     *  * * *     *     *     *     *               *  *  * * *                  *  *   


D|--------------------------------------------------|--------------------------------------------|
A|--------------------------------------------------|--------------------------------------------|
F|--------------------------------------------------|--------------------------------------------|
C|--------------------------------------------------|----------------------------3---------------|
G|-3-3-3-3---------------------5-----------3--------|--------------------------------------------|
D|---------4---0--0-0-0--3--0-----0--1--0-----0--1--|-1--0----0--0--0-0-0--0--1-----1--0---------|
PM * * * *     *  * * *     *     *     *     *               *  *  * * *                   


[Verse 2.2]


D|-----------------------------------------|----------------------------------------------|
A|---------4------4------------2------2----|----------------------------------------------|
F|---------5------5------------2------2----|----------------------------------------------|
C|---------5------5------------2------2----|------------2---2--------------3--------------|
G|---------3------3------------0------0----|------------2---2-----------------------------|
D|-0-0-0-0-------------0-0-0-0-------------|-0-0-0-0-0--0---0--0--0--1--0-----0--1--0--0--|
PM * * * *             * * * *               * * * * *         *                    *  * 


D|-----------------------------------------|----------------------------------------------|
A|---------4------4------------2------2----|----------------------------------------------|
F|---------5------5------------2------2----|----------------------------------------------|
C|---------5------5------------2------2----|------------2---2--------------3--------------|
G|---------3------3------------0------0----|------------2---2-----------------------------|
D|-0-0-0-0-------------0-0-0-0-------------|-0-0-0-0-0--0---0--0--0--1--0-----0--1--0--0--|
PM * * * *             * * * *               * * * * *         *                    *  * 


[Pre Chorus]

D|--------|--------|--------|-------------|
A|--------|--------|--------|-------------|
F|--------|-5------|--------|-5-----------|
C|-2------|-5------|-2------|-5-----------|
G|-2------|-3------|-2------|-3------10\--|
D|-0------|--------|-0------|--------10\--|

[Chorus 2]

D|--------------------------------|--------------------------------|--------------------------------|
A|--------------------------------|--------------------------------|--------------------------------|
F|-4----4----4--4---4---4--4---4--|-5----5----5--5---5---5--5---5--|--------------------------------|
C|-2----2----2--2---2---2--2---2--|-5----5----5--5---5---5--5---5--|-5----5----5--5---5---5--5---5--|
G|-2----2----2--2---2---2--2---2--|-3----3----3--3---3---3--3---3--|-5----5----5--5---5---5--5---5--|
D|-0----0----0--0---0---0--0---0--|--------------------------------|-3----3----3--3---3---3--3---3--|


D|--------------------------------|---------------------------------------|--------------------------------|
A|--------------------------------|---------------------------------------|--------------------------------|
F|-7----7----7--7---7---7--7---7--|-------------4----4--4---4---4--4---4--|-5----5----5--5---5---5--5---5--|
C|-7----7----7--7---7---7--7---7--|-------------2----2--2---2---2--2---2--|-5----5----5--5---5---5--5---5--|
G|-5----5----5--5---5---5--5---5--|-2--2--------2----2--2---2---2--2---2--|-3----3----3--3---3---3--3---3--|
D|--------------------------------|-0--0-----0--0----0--0---0---0--0---0--|--------------------------------|
PM                                  *  *     * 

D|--------------------------------|--------------------------------------|
A|--------------------------------|--------------------------------------|
F|--------------------------------|-7----7----7--7--7--7--7--------------|
C|-5----5----5--5---5---5--5---5--|-7----7----7--7--7--7--7--------------|
G|-5----5----5--5---5---5--5---5--|-5----5----5--5--5--5--5--------------|
D|-3----3----3--3---3---3--3---3--|--------------------------------------|
PM                                               

[Bridge 1]

D|--------------------------------------------|--------------------------------------------|
A|--------------------------------------------|--------------------------------------------|
F|--------------------------------------------|--------------------------------------------|
C|----------------------------3---------------|----------------------------3---------------|
G|-1--2---------------------------------------|-1--2---------------------------------------|
D|-3--0----0--0--0-0-0--0--1-----1--0---0-----|-3--0----0--0--0-0-0--0--1-----1--0---0-----|
PM         *  *  * * *                  *               *  *  * * *                  *

D|--------------------------------------------|--------------------------------------------|
A|--------------------------------------------|--------------------------------------------|
F|--------------------------------------------|--------------------------------------------|
C|----------------------------3---------------|----------------------------3---------------|
G|-1--2---------------------------------------|-1--2---------------------------------------|
D|-3--0----0--0--0-0-0--0--1-----1--0---0-----|-3--0----0--0--0-0-0--0--1-----1--0---0-----|
PM         *  *  * * *                  *               *  *  * * *                  *

D|--------------------------------------------|--------------------------------------------|
A|--------------------------------------------|--------------------------------------------|
F|--------------------------------------------|--------------------------------------------|
C|----------------------------3---------------|----------------------------3---------------|
G|-1--2---------------------------------------|-1--2---------------------------------------|
D|-3--0----0--0--0-0-0--0--1-----1--0---0-----|-3--0----0--0--0-0-0--0--1-----1--0---0-----|
PM         *  *  * * *                  *               *  *  * * *                  *

D|--------------------------------------------|--------------------------------------------|
A|--------------------------------------------|--------------------------------------------|
F|--------------------------------------------|--------------------------------------------|
C|----------------------------3---------------|----------------------------3---------------|
G|-1--2---------------------------------------|-1--2---------------------------------------|
D|-3--0----0--0--0-0-0--0--1-----1--0---0-----|-3--0----0--0--0-0-0--0--1-----1--0---0-----|
PM         *  *  * * *                  *               *  *  * * *                  *

D|--------------------------------------------|--------------------------------------------|
A|--------------------------------------------|--------------------------------------------|
F|--------------------------------------------|--------------------------------------------|
C|----------------------------3---------------|----------------------------3---------------|
G|-1--2---------------------------------------|-1--2---------------------------------------|
D|-3--0----0--0--0-0-0--0--1-----1--0---0-----|-3--0----0--0--0-0-0--0--1-----1--0---0-----|
PM         *  *  * * *                  *               *  *  * * *                  *

D|--------------------------------------------|--------------------------------------------|
A|--------------------------------------------|--------------------------------------------|
F|--------------------------------------------|--------------------------------------------|
C|----------------------------3---------------|----------------------------3---------------|
G|-1--2---------------------------------------|-1--2---------------------------------------|
D|-3--0----0--0--0-0-0--0--1-----1--0---0-----|-3--0----0--0--0-0-0--0--1-----1--0---0-----|
PM         *  *  * * *                  *               *  *  * * *                  *


[Pre Chorus]

D|--------|--------|--------|-------------|
A|--------|--------|--------|-------------|
F|--------|-5------|--------|-5-----------|
C|-2------|-5------|-2------|-5-----------|
G|-2------|-3------|-2------|-3------10\--|
D|-0------|--------|-0------|--------10\--|

[Chorus 3/4]

D|--------------------------------|--------------------------------|---------------------------------------|
A|--------------------------------|--------------------------------|---------------------------------------|
F|-4----4----4--4---4---4--4---4--|-5----5----5--5---5---5--5---5--|---------------------------------------|
C|-2----2----2--2---2---2--2---2--|-5----5----5--5---5---5--5---5--|-5----5----5--5---5---5--5---5---------|
G|-2----2----2--2---2---2--2---2--|-3----3----3--3---3---3--3---3--|-5----5----5--5---5---5--5---5---------|
D|-0----0----0--0---0---0--0---0--|--------------------------------|-3----3----3--3---3---3--3---3---------|


D|--------------------------------|---------------------------------------|--------------------------------|
A|--------------------------------|---------------------------------------|--------------------------------|
F|-7----7----7--7---7---7--7---7--|-------------4----4--4---4---4--4---4--|-5----5----5--5---5---5--5---5--|
C|-7----7----7--7---7---7--7---7--|-------------2----2--2---2---2--2---2--|-5----5----5--5---5---5--5---5--|
G|-5----5----5--5---5---5--5---5--|-2--2-----2--2----2--2---2---2--2---2--|-3----3----3--3---3---3--3---3--|
D|--------------------------------|-0--0-----0--0----0--0---0---0--0---0--|--------------------------------|
PM                                  *  *     *

D|--------------------------------|--------------------------------|---------------------------------------|
A|--------------------------------|--------------------------------|---------------------------------------|
F|--------------------------------|-7----7----7--7---7---7--7---7--|---------------------------------------|
C|-5----5----5--5---5---5--5---5--|-5----5----5--5---5---5--5---5--|-2----2----2--2---2---2--2---2---------|
G|-5----5----5--5---5---5--5---5--|-5----5----5--5---5---5--5---5--|-2----2----2--2---2---2--2---2---------|
D|-3----3----3--3---3---3--3---3--|--------------------------------|-0----0----0--0---0---0--0---0---------|


D|--------------------------------|--------------------------------|---------------------------------------|
A|--------------------------------|--------------------------------|---------------------------------------|
F|-5----5----5--5---5---5--5---5--|--------------------------------|-7----7----7--7--7--7--7--7------------|
C|-5----5----5--5---5---5--5---5--|-5----5----5--5---5---5--5---5--|-7----7----7--7--7--7--7--7------------|
G|-3----3----3--3---3---3--3---3--|-5----5----5--5---5---5--5---5--|-5----5----5--5--5--5--5--5------------|
D|--------------------------------|-3----3----3--3---3---3--3---3--|---------------------------------------|

[Main Riff/Outro 1.1]

D|--------------------------------------------------|--------------------------------------------|
A|--------------------------------------------------|--------------------------------------------|
F|--------------------------------------------------|--------------------------------------------|
C|--------------------------------------------------|----------------------------3---------------|
G|-3-3-3-3---------------------5-----------3--------|--------------------------------------------|
D|---------4---0--0-0-0--3--0-----0--1--0-----0--1--|-1--0----0--0--0-0-0--0--1-----1--0---0--0--|
PM * * * *     *  * * *     *     *     *     *               *  *  * * *                  *  *    

D|--------------------------------------------------|--------------------------------------------|
A|--------------------------------------------------|--------------------------------------------|
F|--------------------------------------------------|--------------------------------------------|
C|--------------------------------------------------|----------------------------3---------------|
G|-3-3-3-3---------------------5-----------3--------|--------------------------------------------|
D|---------4---0--0-0-0--3--0-----0--1--0-----0--1--|-1--0----0--0--0-0-0--0--1-----1--0---0--0--|
PM * * * *     *  * * *     *     *     *     *               *  *  * * *                  *  *      

D|--------------------------------------------------|--------------------------------------------|
A|--------------------------------------------------|--------------------------------------------|
F|--------------------------------------------------|--------------------------------------------|
C|--------------------------------------------------|----------------------------3---------------|
G|-3-3-3-3---------------------5-----------3--------|--------------------------------------------|
D|---------4---0--0-0-0--3--0-----0--1--0-----0--1--|-1--0----0--0--0-0-0--0--1-----1--0---0--0--|
PM * * * *     *  * * *     *     *     *     *               *  *  * * *                  *  *     

D|--------------------------------------------------|--------------------------------------------|
A|--------------------------------------------------|--------------------------------------------|
F|--------------------------------------------------|--------------------------------------------|
C|--------------------------------------------------|----------------------------3---------------|
G|-3-3-3-3---------------------5-----------3--------|--------------------------------------------|
D|---------4---0--0-0-0--3--0-----0--1--0-----0--1--|-1--0----0--0--0-0-0--0--1-----1--0---------|
PM * * * *     *  * * *     *     *     *     *               *  *  * * *                    


[Outro 1.2]

D|-----------------------------------|-----------------------------|
A|-----------------------------------|-----------------------------|
F|-----------------------------------|---------------------7-------|
C|-3--2----2---5--3----2---6--5--3---|-2----3----2----3------------|
G|-3--2----2---5--3----2---6--5--3---|-2----3----2----3------------|
D|-1--0----0---3--1----0---4--3--1---|-0----1----0----1------------|


D|-----------------------------------|---------------------10------|
A|-----------------------------------|-----------------------------|
F|------------------------------------|----------------------------|
C|-3--2----2---5--3----2---6--5--3---|-2----3----2----3------------|
G|-3--2----2---5--3----2---6--5--3---|-2----3----2----3------------|
D|-1--0----0---3--1----0---4--3--1---|-0----1----0----1------------|


D|-----------------------------------|-----------------------------|
A|-----------------------------------|-----------------------------|
F|-----------------------------------|-----------------------------|
C|-3--2----2---5--3----2---6--5--3---|-2----3----2----3------------|
G|-3--2----2---5--3----2---6--5--3---|-2----3----2----3------------|
D|-1--0----0---3--1----0---4--3--1---|-0----1----0----1------------|


D|-----------------------------------|-----------------------------|
A|-----------------------------------|-----------------------------|
F|-----------------------------------|-----------------------------|
C|-3--2----2---5--3----2---6--5--3---|-2----3----2----3----2-------|
G|-3--2----2---5--3----2---6--5--3---|-2----3----2----3----2-------|
D|-1--0----0---3--1----0---4--3--1---|-0----1----0----1----0-------|



[Lead Fills]


[Pre Chorus 1]

D|---------------------------------|---------------------|------------------|
A|---------------------------------|-10----9----------10-|---------------9--|
F|-------------------------7----9--|-------------11------|--------7--9------|
C|---------------------------------|---------------------|-12---------------|
G|---------------------------------|---------------------|------------------|
D|---------------------------------|---------------------|------------------|


D|---------------------|-------------|
A|-10----9-------------|-15----------|
F|-------------11------|-------------|
C|------------------12-|-------------|
G|---------------------|-------------|
D|---------------------|-------------|


[Chorus 1]

D|--------------------------------|--------------------------------|--------------------------------|
A|--------------------------------|--------------------------------|--------------------------------|
F|-13---13---13-13--13--13-14-13--|-16---16---16-16--16--16-16--16-|-12---12---12-12--12--12-12--12-|
C|--------------------------------|--------------------------------|--------------------------------|
G|-11---11---11-11--11--11-12-11--|-14---14---14-14--14--14-14--14-|-10---10---10-10--10--10-10--10-|
D|--------------------------------|--------------------------------|--------------------------------|


D|-----------------------------------------|---------------------------------------|
A|-----------------------------------------|---------------------------------------|
F|-11---11-11--11--14-14-14-14-14-14-14-16-|-------------13---13-13--13--13-14-13--|
C|-----------------------------------------|---------------------------------------|
G|-9----9--9---9---12-12-12-12-12-12-12-14-|-------------11---11-11--11--11-12-11--|
D|-----------------------------------------|-0--0-----0----------------------------|
PM                                           *  *     *

D|--------------------------------|--------------------------------|--------------------------------------|
A|--------------------------------|--------------------------------|--------------------------------------|
F|-16---16---16-16--16--16-16--16-|-12---12---12-12--12--12-12--12-|-11---11---11-------------------------|
C|--------------------------------|--------------------------------|--------------------------------------|
G|-14---14---14-14--14--14-14--14-|-10---10---10-10--10--10-10--10-|-9----9----9--------------------------|
D|--------------------------------|--------------------------------|--------------0--0--0--0--0-----------|
PM                                                                                *  *  *  *  *


[Pre Chorus 2]

D|---------------------------------|---------------------|------------------|---------------------|
A|---------------------------------|-10----9----------10-|---------------9--|-10----9-------------|
F|-------------------------7----9--|-------------11------|--------7--9------|-------------11------|
C|---------------------------------|---------------------|-12---------------|------------------12-|
G|---------------------------------|---------------------|------------------|---------------------|
D|---------------------------------|---------------------|------------------|---------------------

D|--------------15-------|---------------------|------------------|-------------------|--------------15----|
A|-15----15-17-----17----|-10----9----------10-|---------------9--|-10----9-----------|-15----15-17-----17-|
F|-----------------------|-------------11------|--------7--9------|-----------11------|--------------------|
C|-----------------------|-12------------------|------------------|----------------12-|--------------------|
G|-----------------------|---------------------|------------------|-------------------|--------------------|
D|-----------------------|---------------------|------------------|-------------------|--------------------|


[Chorus 2]

D|--------------------------------|--------------------------------|--------------------------------|
A|--------------------------------|--------------------------------|--------------------------------|
F|-13---13---13-13--13--13-14-13--|-16---16---16-16--16--16-16--16-|-12---12---12-12--12--12-12--12-|
C|--------------------------------|--------------------------------|--------------------------------|
G|-11---11---11-11--11--11-12-11--|-14---14---14-14--14--14-14--14-|-10---10---10-10--10--10-10--10-|
D|--------------------------------|--------------------------------|--------------------------------|


D|-----------------------------------------|---------------------------------------|
A|-----------------------------------------|---------------------------------------|
F|-11---11-11--11--14-14-14-14-14-14-14-16-|-------------13---13-13--13--13-14-13--|
C|-----------------------------------------|---------------------------------------|
G|-9----9--9---9---12-12-12-12-12-12-12-14-|-------------11---11-11--11--11-12-11--|
D|-----------------------------------------|-0--0-----0----------------------------|
PM                                           *  *     *

D|--------------------------------|--------------------------------|--------------------------------------|
A|--------------------------------|--------------------------------|--------------------------------------|
F|-16---16---16-16--16--16-16--16-|-12---12---12-12--12--12-12--12-|-11---11---11-9--9--9--9--9--9--9-----|
C|--------------------------------|--------------------------------|--------------------------------------|
G|-14---14---14-14--14--14-14--14-|-10---10---10-10--10--10-10--10-|-9----9----9--7--7--7--7--7--7--7-----|
D|--------------------------------|--------------------------------|--------------------------------------|


(NO SOLO AS OF YET !!)


[Pre Chorus 3]

D|---------------------|------------------|---------------------|--------|
A|-10----9----------10-|---------------9--|-10----9-------------|-15-----|
F|-------------11------|--------7--9------|-------------11------|--------|
C|---------------------|-12---------------|------------------12-|--------|
G|---------------------|------------------|---------------------|--------|
D|---------------------|------------------|---------------------|--------|


[Chorus 4]

D|--------------------------------|--------------------------------|--------------------------------|
A|--------------------------------|--------------------------------|--------------------------------|
F|-13---13---13-13--13--13-14-13--|-16---16---16-16--16--16-16--16-|-12---12---12-12--12--12-12--12-|
C|--------------------------------|--------------------------------|--------------------------------|
G|-11---11---11-11--11--11-12-11--|-14---14---14-14--14--14-14--14-|-10---10---10-10--10--10-10--10-|
D|--------------------------------|--------------------------------|--------------------------------|

D|-----------------------------------------|---------------------------------------|
A|-----------------------------------------|---------------------------------------|
F|-11---11-11--11--14-14-14-14-14-14-14-16-|-------------13---13-13--13--13-14-13--|
C|-----------------------------------------|---------------------------------------|
G|-9----9--9---9---12-12-12-12-12-12-12-14-|-------------11---11-11--11--11-12-11--|
D|-----------------------------------------|-0--0-----0----------------------------|                     
PM                                           *  *     *

D|--------------------------------|
A|--------------------------------|
F|-12---12---12-12--12--12-12--12-|
C|--------------------------------|
G|-10---10---10-10--10--10-10--10-|
D|--------------------------------|

D|-----------------------------------------|--------------------------------|
A|-----------------------------------------|--------------------------------|
F|-11---11-11--11--14-14-14-14-14-14-14-16-|-16---16---16-16--16--16-16--16-|
C|-----------------------------------------|--------------------------------|
G|-9----9--9---9---12-12-12-12-12-12-12-14-|-14---14---14-14--14--14-14--14-|
D|-----------------------------------------|--------------------------------|

D|--------------------------------|--------------------------------|
A|--------------------------------|--------------------------------|
F|-13---13---13-13--13--13-14-13--|-16---16---16-16--16--16-16--16-|
C|--------------------------------|--------------------------------|
G|-11---11---11-11--11--11-12-11--|-14---14---14-14--14--14-14--14-|
D|--------------------------------|--------------------------------|

D|--------------------------------|-----------------------------------------|
A|--------------------------------|-----------------------------------------|
F|-12---12---12-12--12--12-12--12-|-11---11-11--11--14-14-14-14-14----------|
C|--------------------------------|-----------------------------------------|
G|-10---10---10-10--10--10-10--10-|-9----9--9---9---12-12-12-12-12----------|
D|--------------------------------|-----------------------------------------|



*****************
|\   Slide down
*****************

            
            
Suggest correction
Creating personal tab
Creating personal tab
You can edit any tab online and save it as your Personal.

You can edit, replace or remove any tab part or add personal notes – all changes will be seen only by you.

Personal tabs can be accessed anytime from any device, even offline.
Learn more »
comments
print report bad tab
guest
You may want to rate the tab now too:
select rating
Wanna post a correction for this tab? Suggest correction