Oops, an error
Loading. Please wait.

Nightmares On Crack St bass

116 views 1 this week
no commentswrite comment
1 2 3 4 5
3 more votes to show rating
add to favorites
×
Save as Personal and add changes to this tab that will be seen only by you. Learn more ›
×
You can save this tab as Personal to edit and correct it or add notes. All changes will be seen only by you. Learn more »
launch autoscroll
font size
0
reset
guitar tuner
edit
Autoscroll
slow
fast
+/-
esc
set tempo
stop
http://www.trencher.tk/

Nightmares on Crack St. - Trencher


Intro (organ part)
f|--------------------------------------|
c|--------------------------------------|
g|--------------------------------------|
d|9-------1-0-------6-4--------3--------|

               
Prelude to freakout
f|---------------|
c|--5-6-5-3-5----|
g|-5-------------|
d|3--------------|

                
LOUD LOUD LOUD (strum/thrash as necessary)
f|---------------------------------------------------------|
c|11--------2--------6----------------5-5-6-6-5-5-3-3-5-5--|
g|11--------2--------6------------5-5----------------------|
d|9 --------0--------4--------3-3--------------------------|

BREAK

Next bit
f|-----------------------------------------------------|
c|11-11-11---------------------------------------------|
g|11-11-11-This is basically tremelo picking/thrashing-|
d|9 -9 -9 -0000000000000000000000000000000000000000000-|repeat a few times

then onto
f|------------------------------------------------------------------------|
c|------------------------------------------------------------------------|
g|------------------------------------------------------------------------|
d|9-0-4-0-12--9-0-4-0-12--9-0-4-0-12--9-0-4-0-12--9-0-4-0-12--9-0-4-0-12--|

BREAK

Last bit
f|----------------------------------------|
c|----------------------------------------|
g|----------------------------------------|
d|5--6--7--6--5--2----5--6--7--6--5--2----|

f|-----------------------|
c|2---3---4---3---2---11-|
g|2---3---4---3---2---11-|
d|0---1---2---1---0---9--|

            
            
Suggest correction
Creating personal tab
Creating personal tab
You can edit any tab online and save it as your Personal.

You can edit, replace or remove any tab part or add personal notes – all changes will be seen only by you.

Personal tabs can be accessed anytime from any device, even offline.
Learn more »
Give kudos to tab author, rate the tab!
1 2 3 4 5
comments
print report bad tab
guest
You may want to rate the tab now too:
select rating
Wanna post a correction for this tab? Suggest correction