Oops, an error
Loading. Please wait.

The Mountain tab

6,297 views 21 this week
1 commentread comment
1 2 3 4 5
x 7
add to favorites
×
Save as Personal and add changes to this tab that will be seen only by you. Learn more ›
×
You can save this tab as Personal to edit and correct it or add notes. All changes will be seen only by you. Learn more »
launch autoscroll
font size
0
reset
how to read this tab
guitar tuner
edit
Autoscroll
slow
fast
+/-
esc
set tempo
stop
I tabbed this off of one of Trevor's live performances so it should be
exactly how he plays it.

Tuning: Standard


e|--------------------------------------------------------------------------|
B|-----3-----3-----3-----3-----3-----3-----3-----3-----3-----3-----3-----3--|
G|----0-----0-----0-----0-----0-----0-----0-----0-----0-----0-----0-----0---|
D|--------------------------------------------------------------------------|
A|--------------------------------------------------5-----5-----5-----5-----|
E|--3-----3-----3-----3-----3-----3-----3-----3-----------------------------|


e|--------------------------|
B|-----3-----3-----3-----3--|
G|----0-----0-----0-----0---|
D|--------------------------|
A|--3-----3-----3-----3-----|
E|--------------------------|

That's all it is. This is just played repeatedly throughout the entire song.
It's really easy to pick up on, just play it next to the song once or twice.

Enjoy and let the sweet sweet sounds of Trevor Hall consume your mind :)


            
            
Suggest correction
Creating personal tab
Creating personal tab
You can edit any tab online and save it as your Personal.

You can edit, replace or remove any tab part or add personal notes – all changes will be seen only by you.

Personal tabs can be accessed anytime from any device, even offline.
Learn more »
comments
print report bad tab
1 comment total.
0 reply
motherseyes 10 Jul 31, 2015 01:35 PM

this is great! except i just watched this (https://www.youtube.com/watch?v=dW8FU7A9vIM) rendition of him doing the song and it looks like for the last shift in fingers it's 3rd fret, no fret, 3rd fret instead of what you have as 2nd fret, no fret, 3rd fret.

guest
You may want to rate the tab now too:
select rating
Wanna post a correction for this tab? Suggest correction