Oops, an error
Loading. Please wait.

Beautiful Mysterious chords

21,492 views 24 this week
1 commentread comment
1 2 3 4 5
x 6
add to favorites
×
Save as Personal and add changes to this tab that will be seen only by you. Learn more ›
×
You can save this tab as Personal to edit and correct it or add notes. All changes will be seen only by you. Learn more »
launch autoscroll
font size
0
reset
transpose
0
reset
display chords
guitar tuner
edit
Autoscroll
slow
fast
+/-
esc
set tempo
stop
Author
Difficulty
Strumming
There is no strumming pattern for this song yet. and get +5 IQ
Hey guys, this is my first tab, figured it out like 5 minutes ago. Here it is. Standard Tuning!


The whole song: C,G,Aminor,F

e|---x-----3----------0---------1---------------------------------------------|
B|---1-----3----------1---------1---------------------------------------------|
G|---0-----0----------2---------2---------------------------------------------|
D|---2-----0----------2---------3---------------------------------------------|
A|---3-----2----------0---------3---------------------------------------------|
E|---x-----3----------x---------1---------------------------------------------|
           C           G                    A minor             F

Thats it, just make it ring, pick it in your fashion! Add your own flair. One Love. Peace

Tribal Seeds, Http://www.tribalseeds.net/

            
            
Suggest correction
Creating personal tab
Creating personal tab
You can edit any tab online and save it as your Personal.

You can edit, replace or remove any tab part or add personal notes – all changes will be seen only by you.

Personal tabs can be accessed anytime from any device, even offline.
Learn more »
comments
print report bad tab
1 comment total.
0 reply
newscreename491 35 Jun 11, 2008 10:50 PM

hey. so this helped me figure out the actual tabulature for the song. idk why it didnt accept my tab but ill just put i in here for u guys. sounds good on a clean channel with reverb

e|---------------------3------------------------1--------------------------|
B|---------1p0h1---------3----------1p0h1---------1----------------------------
G|-------0-----------------0------2-----------------2----------------------|
D|-----2-------------0----------2-------------3----------------------------|
A|---3-------------2----------0-------------3-------------------------------|
E|---------------3------------------------1-----------------------------------

guest
You may want to rate the tab now too:
select rating
Wanna post a correction for this tab? Suggest correction