Oops, an error
Loading. Please wait.

Dark Angel bass

6,303 views 1 this week
no commentswrite comment
1 2 3 4 5
3 more votes to show rating
add to favorites
×
Save as Personal and add changes to this tab that will be seen only by you. Learn more ›
×
You can save this tab as Personal to edit and correct it or add notes. All changes will be seen only by you. Learn more »
launch autoscroll
font size
0
reset
guitar tuner
edit
Autoscroll
slow
fast
+/-
esc
set tempo
stop
Author
Difficulty
Hey my name is Xavier. I love reggae...message me if you want me to learn any song for 
and tab it. my email is jamxh@hotmail.com. This is my first tab so please send me some 
Enjoy :)

( # ) = gallop with two fingers
Intro: 0:51
G|------------------------------------------|
D|------------------------------------------|
A|---------------8--------------------------|
E|---------5-------8-----3------------------| x2

Intro/Verse: 1:04
G|-------------------------------------------------|
D|-------------------------------------------------|
A|------5 s 8888--------10-----------5-------------|
E|-5-5-----------0-8-8----8---0-333---33-0-3-------|

G|--------------------------------------------------|
D|--------------------------------------------------|
A|------55-88888--------10--------------------------|
E|-5-5------------0-8-8----8-8---0-33--0-333--------|

Verse/Chorus 1: 1:17
G|-------------------------------------------------|
D|-------------------------------------------------|
A|------5-8888-----------------------5-------------|
E|-5-5----------x 8888----0-33--0-33---------------|

G|----------------------------------------------|
D|----------------------------------------------|
A|------5-8888--------10------------------------|
E|-5-5----------0-8-8----8---0-33--0-333--------|

Pre Chorus: 1:31
G|------------------------------------|
D|---------5--3-----------------------|
A|-77-----------5--7------------------|
E|----55------------------------------|

G|---------------------------------------|
D|---------5--3------55------------------|
A|-(777)---------5--3--------------------|
E|------55-------------------------------|

G|------------------------------------|
D|---------5--3-----------------------|
A|-77-----------5--7------------------|
E|----55------------------------------|

G|------------------------------------|
D|---------5--3-----------------------|
A|-77-----------5--3------------------|
E|----55------------------------------|

G|------------------------------------|
D|---------5--3-----------------------|
A|-77-----------5--7------------------|
E|----55------------------------------|

G|---------------------------------------|
D|---------5--3------55------------------|
A|-(777)---------5--3--------------------|
E|------55-------------------------------|

G|------------------------------------|
D|---------5--3-----------------------|
A|-77-----------5--7------------------|
E|----55------------------------------|

G|------------------------------------|
D|---------5--3-----------------------|
A|-77-----------5--3------------------|
E|----55------------------------------|

Break Down:
G|------------------------------------|
D|---7--5-------------3--5------------|
A|--------7--5---3--5-----------------|
E|------------------------------------| x2

G|---------------------------------------------------------|
D|--10----7-------------7-----12--10-99--7--555-3----------|
A|-----10---10--7-7-7h9---7-----------------------5-3-5----|
E|---------------------------------------------------------|
(this part is a little tricky and Im not sure if I tabbed it right :/)


Verse/Chorus 2: 2:10
G|-------------------------------------------|
D|-------------------------------------------|
A|------5-8888--------10---------------5-----|
E|-5-5----------0-8-8----8---0-33--0-33------|

G|----------------------------------------------|
D|----------------------------------------------|
A|------5-8888-------------------------5--------|
E|-5-5----------0-8-8-0-8----0-33--0-33---------|

G|--------------------------------------------------|
D|-----------10-------------------------------------|
A|------(8888)----88-----10-------------------------|
E|-5-5--------------8-8-----8---3333-033------------|

G|-------------------------------------------|
D|-------------------------------------------|
A|------5-8888-------------------------------|
E|-5-5----------0-8-8-88-----0-33--0-333-----|


Pre Chorus: 2:38
(small changes in this one but i was too lazy to tab it :)


Breakdown: 3:04
(same as above)

Verse/Chorus 3: 3:17

G|----------------------------------------------|
D|----------------------------------------------|
A|------5-8888--------10-----------------5------|
E|-5-5----------0-8-8----8-----0-33--0-33-------|

G|---------------------------------------------|
D|----------10---------------------------------|
A|-----8-8-8---8------10----------------5------|
E|-5-5-------------8-8---88---0-33--0-33-------|

G|----------------------------------------------|
D|----------------------------------------------|
A|------5-8888-------------------------5--------|
E|-5-5----------0-8-8-0-8----0-33--0-33---------|

G|-------------------------------------------------|
D|-------------------------------------------------|
A|------5-8888-----------------------5-------------|
E|-5-5----------x 8888----0-33--0-33---------------|

Break..Bass comes back in at
4:09
G|--------------------------------------|
D|--------------------------------------|
A|--------------------------------------|
E|-55-55--00--33------------------------| x4

Last Verse!: 4:22
G|----------------------------------------------|
D|----------------------------------------------|
A|------5-8888--------10-----------------5------|
E|-5-5----------0-8-8----8-----0-33--0-33-------|

G|--------------------------------------------------|
D|-----------10-------------------------------------|
A|------(8888)---8-------10-------------------------|
E|-5-5--------------8-8----88---3333-033------------|

G|-------------------------------------------|
D|-------------------------------------------|
A|------5-8888--------10---------------------|
E|-5-5----------0-8-8----88-----3333-0333----|

G|----------------------------------------------|
D|----------------------------------------------|
A|------5-8888--------10-----------------5------|
E|-5-5----------0-8-8----8-----0-33--0-33---5---|

            
            
Suggest correction
Creating personal tab
Creating personal tab
You can edit any tab online and save it as your Personal.

You can edit, replace or remove any tab part or add personal notes – all changes will be seen only by you.

Personal tabs can be accessed anytime from any device, even offline.
Learn more »
Give kudos to tab author, rate the tab!
1 2 3 4 5
comments
print report bad tab
guest
You may want to rate the tab now too:
select rating
Wanna post a correction for this tab? Suggest correction