Oops, an error
Loading. Please wait.

Sappho bass

version 1
version 1

Whole song

by Tribes
432 views 3 this week
no commentswrite comment
1 2 3 4 5
3 more votes to show rating
add to favorites
×
Save as Personal and add changes to this tab that will be seen only by you. Learn more ›
×
You can save this tab as Personal to edit and correct it or add notes. All changes will be seen only by you. Learn more »
launch autoscroll
font size
0
reset
guitar tuner
edit
Autoscroll
slow
fast
+/-
esc
set tempo
stop
Author
Warning: this tab isn't 100% correct. It's like 90% correct.

Intro ( first only instruments, later the voice of Johnny Loyd)

G|-----------------------------------------------------------------------||
D|-----------------------------------------------------------------------||
A|---2---0--------------------------3---3--3-3-3-3-3---------------------||
E|------------3----3--3-3-3-3-3------------------------1----1--1-1-1-1-1-||


Then when "She said..."

Pre-chorus

G|-----------------------------------------------------------------------------||
D|-----------------------------------------------------------------------------||
A|--------5----5----5-5------------------------5----5----5-5-------------------||
E|----------------------------3----3----3-3----------------------3----3----3-1-||

Then when "how you tell a child..." All instruments but acoustic guitar (so I'm guessing 
that includes the bass too) shut up.
_____________________________________________________________________________
And then when " Hooooow, with a girl like sappho (did-you-know sappho was a person and 
now it means lesbian)"

Chorus

G|--------------------------------------------------------||
D|--------------------------------------------------------||
A|-----2--------------------------------------------------||         X2
E|------------0------3------1------3------1---------------||

Well, that's actually all the notes you'll play in the song, only play them with little 
variations. If you are mad because I didn't finish it, then first of all, I don't care, 
second, it's the same the hole song with little variations. Ok?

By: Dins, bassist of The Void

"Never follow your dreams, make them follow you"

            
            
Suggest correction
Creating personal tab
Creating personal tab
You can edit any tab online and save it as your Personal.

You can edit, replace or remove any tab part or add personal notes – all changes will be seen only by you.

Personal tabs can be accessed anytime from any device, even offline.
Learn more »
Give kudos to tab author, rate the tab!
1 2 3 4 5
comments
print report bad tab
guest
You may want to rate the tab now too:
select rating
Wanna post a correction for this tab? Suggest correction