Oops, an error
Loading. Please wait.

Is It tab

25,842 views 21 this week
2 commentsread comments
1 2 3 4 5
x 13
add to favorites
×
Save as Personal and add changes to this tab that will be seen only by you. Learn more ›
×
You can save this tab as Personal to edit and correct it or add notes. All changes will be seen only by you. Learn more »
launch autoscroll
font size
0
reset
how to read this tab
guitar tuner
edit
Autoscroll
slow
fast
+/-
esc
set tempo
stop
Author
I couldnt find any tab of this song on the internet so i used the little expercience 
i have to write it  myself. Its not complete and there are some mistakes but hey its my 
time i write a tab ;) .

intro:
e|----------------|----------------|
B|----------------|----------------|
G|---2------5-----|--8-7-5-8-7-5-7-|
D|---2------5-----|--8-7-5-8-7-5-7-|
A|---0------3-----|--6-5-3-6-5-3-5-|
E|----------------|----------------|

this is what i hear,  but you have to improvise a little more on this , put on the song 
to it and play a long using this ;)
e|-------------------------|-------------------------|
B|-------------------------|-------------------------|
G|-------------------------|-------------------------|
D|--2-2-4-2-5---2-2-4-2-5--|--2-2-4-2-5---2-2-4-2-5--|
A|--0-0-0-0-0---0-0-0-0-0--|--3-3-3-3-3---3-3-3-3-3--|
E|-------------------------|-------------------------|

i'm not sure of the last two powerchords.
e|-------------------|--------------------------------------------------------|
B|-------------------|--------------------------------------------------------|
G|--7-7-7-7-7-7-7-7--|-----------------2-2-2-2--2-2---------------------------|
D|--7-7-7-7-7-7-7-7--|-----------------2-2-2-2--2-2--3-3-3-3-5--5-5-----------|
A|--5-5-5-5-5-5-5-5--|-5-3-2-5-3-2-0---0-0-0-0--0-0--3-3-3-3-5--5-5-----------|
E|-------------------|-------------------------------1-1-1-1-3--3-3-----------|

some times it goes like this
e|-------------------------|---------------------------|
B|-------------------------|---------------------------|
G|-------------------------|---------------------------|
D|--2-2-4-2-5---2-2-4-2-5--|--2-2-4-2-5---2-2-4-2-5----|
A|--0-0-0-0-0---0-0-0-0-0--|--3-3-3-3-3---3-3-3-3-3----|
E|-------------------------|---------------------------|

e|-------------------|---------------------------------|
B|---8-7-5-8-7-5-7---|---------------------------------|
G|---8-7-5-8-7-5-7---|---------------------------------|
D|---6-5-3-6-5-3-5---|---------------------------------|
A|-------------------|---------------------------------|
E|-------------------|---------------------------------|

if i had more time i would have wote the whole tab , but someone can take it from here.

            
            
Suggest correction
Creating personal tab
Creating personal tab
You can edit any tab online and save it as your Personal.

You can edit, replace or remove any tab part or add personal notes – all changes will be seen only by you.

Personal tabs can be accessed anytime from any device, even offline.
Learn more »
comments
print report bad tab
2 comments total.
+2 reply
mffromhell 10 Mar 06, 2013 02:09 PM

So far so good, you've got most of the song except for the bridge, but the fill: A: -5-3-2-5-3-2-0 should be D 5-4-2-5-4-2 (ring) and followed by the A chord.

I couldnt find any tab of this song on the internet so i used the little expercience
i have to write it myself. Its not complete and there are some mistakes but hey its my
time i write a tab ;) .

intro:
e|----------------|----------------|
B|----------------|----------------|
G|---2------5-----|--8-7-5-8-7-5-7-|
D|---2------5-----|--8-7-5-8-7-5-7-|
A|---0------3-----|--6-5-3-6-5-3-5-|
E|----------------|----------------|

this is what i hear, but you have to improvise a little more on this , put on the song
to it and play a long using this ;)
e|-------------------------|-------------------------|
B|-------------------------|-------------------------|
G|-------------------------|-------------------------|
D|--2-2-4-2-5---2-2-4-2-5--|--2-2-4-2-5---2-2-4-2-5--|
A|--0-0-0-0-0---0-0-0-0-0--|--3-3-3-3-3---3-3-3-3-3--|
E|-------------------------|-------------------------|

i'm not sure of the last two powerchords.
e|-------------------|--------------------------------------------------------|
B|-------------------|--------------------------------------------------------|
G|--7-7-7-7-7-7-7-7--|-----------------2-2-2-2--2-2---------------------------|
D|--7-7-7-7-7-7-7-7--|-5-4-2-5-4-2-0---2-2-2-2--2-2--3-3-3-3-5--5-5-----------|
A|--5-5-5-5-5-5-5-5--|-----------------0-0-0-0--0-0--3-3-3-3-5--5-5-----------|
E|-------------------|-------------------------------1-1-1-1-3--3-3-----------|

some times it goes like this
e|-------------------------|---------------------------|
B|-------------------------|---------------------------|
G|-------------------------|---------------------------|
D|--2-2-4-2-5---2-2-4-2-5--|--2-2-4-2-5---2-2-4-2-5----|
A|--0-0-0-0-0---0-0-0-0-0--|--3-3-3-3-3---3-3-3-3-3----|
E|-------------------------|---------------------------|

e|-------------------|---------------------------------|
B|---8-7-5-8-7-5-7---|---------------------------------|
G|---8-7-5-8-7-5-7---|---------------------------------|
D|---6-5-3-6-5-3-5---|---------------------------------|
A|-------------------|---------------------------------|
E|-------------------|---------------------------------|

if i had more time i would have wote the whole tab , but someone can take it from here.

0 reply
noorddieren 36 Apr 03, 2016 04:08 AM

e|-------------------|---------------------------------|
B|---8-7-5-8-7-5-7---|---------------------------------|
G|---8-7-5-8-7-5-7---|---------------------------------|
D|---6-5-3-6-5-3-5---|---------------------------------|
A|-------------------|---------------------------------|
E|-------------------|---------------------------------|

This has to be:

e|-------------------|---------------------------------|
B|-------------------|---------------------------------|
G|---8-7-5-8-7-5-7---|---------------------------------|
D|---8-7-5-8-7-5-7---|---------------------------------|
A|---6-5-3-6-5-3-5---|---------------------------------|
E|-------------------|---------------------------------|

And I think the bridge goes like this:

e|-------------------------|-----------------------|
B|-------------------------|-----------------------|
G|-10-10-10-10-10-10-10-10-|-10-10-10-10-10-10-12\-|
D|-------------------------|-----------------------|
A|-8--8--8--8--8--8--8--8--|-8--8--8--8--8--8--10\-|
E|-------------------------|-----------------------|

e|-----------------|-----------------|
B|-----------------|-5-5-5-5/8-------|
G|-5-5-5-5-5-5-5-5-|-5-5-5-5/7-------|
D|-----------------|-----------------|
A|-3-3-3-3-3-3-3-3-|-----------------|
E|-----------------|-----------------|

e|-----------------|-----------------|
B|-----------------|-----------------|
G|-2-2-2-2-2-2-2-2-|-2---------------|
D|-0-0-0-0-0-0-0-0-|-0-0-2-3-2-0-----|
A|-----------------|-------------3---|
E|-----------------|-----------------|

e|-----------------|-----------------|
B|-----------------|-----------------|
G|-----------------|-----------------|
D|-----------------|-----------------|
A|-2-2-2-2-2-2-2-2-|-2-2-2-2-2-2-2-2-|
E|-0-0-0-0-0-0-0-0-|-0-0-0-0-0-0-0-0-|

guest
You may want to rate the tab now too:
select rating
Wanna post a correction for this tab? Suggest correction