Oops, an error
Loading. Please wait.

Amorcito Corazon tab

338 views 3 this week
no commentswrite comment
1 2 3 4 5
3 more votes to show rating
add to favorites
×
Save as Personal and add changes to this tab that will be seen only by you. Learn more ›
×
You can save this tab as Personal to edit and correct it or add notes. All changes will be seen only by you. Learn more »
launch autoscroll
font size
0
reset
how to read this tab
guitar tuner
edit
Autoscroll
slow
fast
+/-
esc
set tempo
stop
Este requinto esta muy fácil solo que es un poco rápido. Lo toca el requinto
con capo en primer traste o guitarra con capo en sexto traste.


A# --10-8-10--8--10--8--10---7-8-9-10--8--10--8--10--8--7----5--7--5--7--
F  ----------------------------------------------------------------------
C# ----------------------------------------------------------------------
G# ----------------------------------------------------------------------
D# ----------------------------------------------------------------------
A# ----------------------------------------------------------------------

A# --5--7--5--7--5--7--5-----------------------5--7--8---8--8--8--5------
F  -----------------------8----6--8--6--5--6-------------5--5--5--5------
C# ------------------------------------------------------5--5--5--5------
G# ----------------------------------------------------------------------
D# ----------------------------------------------------------------------
A# ----------------------------------------------------------------------

Acontinuacion pongo el acompamiento de la cancion:

A# -------------0--1-----------------------------------------
F  ----0--1--3-----------------------------------------------
C# --2-------------------------------------------------------
G# ----------------------------------------------------------
D# ----------------------------------------------------------
A# ----------------------------------------------------------

Bueno espero que les sirva mi contribución.
esta cancion se la dedico a la persona que amo pues es mi amorcito corazón.

            
            
Suggest correction
Creating personal tab
Creating personal tab
You can edit any tab online and save it as your Personal.

You can edit, replace or remove any tab part or add personal notes – all changes will be seen only by you.

Personal tabs can be accessed anytime from any device, even offline.
Learn more »
Give kudos to tab author, rate the tab!
1 2 3 4 5
comments
print report bad tab
guest
Wanna post a correction for this tab? Suggest correction