Oops, an error
Loading. Please wait.

Anthem We Are The Fire bass

version 2
version 2

Whole song

by Trivium
5,690 views 1 this week
1 commentread comment
1 2 3 4 5
x 5
add to favorites
×
Save as Personal and add changes to this tab that will be seen only by you. Learn more ›
×
You can save this tab as Personal to edit and correct it or add notes. All changes will be seen only by you. Learn more »
launch autoscroll
font size
0
reset
guitar tuner
backing track
0:00
0:00
edit
Autoscroll
slow
fast
+/-
esc
set tempo
stop
Author
anthem (we are the fire)                             

169290
                                                                         trivium

bass
complete run through of whole song 

     Q    H        E.  S    S Q.     Q    Q    S    Q    H        E.  S  
G||----------------------|-----------------------|----------------------|
D||----------------------|-----------------------|----------------------|
A||--0-----------------0-|--L------------------0-|--0-------------------|
E||----------------------|-----------3-----------|--------------------1-|


  E  E  S S S E.  S S S S S S    E  E  E  E  E  E  E  E   
------------------------------|--------------------------|
------------------------------|--------------------------|
------------------------------|--------------------------|
--L--1--1-1-1-3---3-3-3-3-3-3-|--5--5--5--5--5--5--5--5--|


  E  E  E  E  E  E  E  E     E  E  E  E  E  E  E  S S  
--------------------------|---------------------------|
--------------------------|---------------------------|
--------------------------|---------------------------|
--1--1--1--1--3--3--3--3--|--5--5--5--5--5--5--5--5-1-|


  E  E  S S S E.  E  S S S S    E  S E  S Q.       Q     
-----------------------------|--------------------------|
-----------------------------|--------------------------|
-----------------------------|--------------------------|
--L--1--1-1-1-3---3--3-5-5-3-|--5----3----1------/13----|


  Q    E  E  E  E  S E.     S S S E  S S S S S S S S E  S  
-------------------------|--------------------------------|
-------------------------|--------------------------------|
-------------------------|--------------------------------|
--1----1--1--1--1--3-3---|--5-5-3-5--5-5-5-5-5-5-5-5-3----|


  Q    E  E  E  E  S E.     S S S E  S S S S S S S S E  S  
-------------------------|--------------------------------|
-------------------------|--------------------------------|
-------------------------|--------------------------------|
--1----1--1--1--1--3-3---|--5-5-3-5--5-5-5-5-5-5-5-5-3----|


  S S E  E  E  E  E  E  E     E  E  E  E  S E  E  E  S  
---------------------------|---------------------------|
---------------------------|---------------------------|
---------------5--5--5--5--|--------------2-2--3--5--0-|
--1-1-1--1--1--------------|--0--0--0--0---------------|


  S S E  S S S E  S S S S S S S    S S S S S S S S S S S E  E  S  
-------------4-5--------------7-|--L-----4-5-4-2-0---------------|
--------------------------------|--------------------------------|
--L-0-0--0-0------0-0-0-0-0-0---|----0-0-----------3-3-3-5--5--0-|
--------------------------------|--------------------------------|


  S S E  S S S E  S S S S S S S    S S S S S S S S S S S E  S S S  
-------------4-5--------------7-|--L-----4-5-4-2-0----------------|
--------------------------------|---------------------------------|
--L-0-0--0-0------0-0-0-0-0-0---|----0-0-----------3-3-3-5--0-0---|
--------------------------------|-------------------------------3-|


  E  E  E  E  E  E  E  E     E  E  E  E  E  E  E  E   
--------------------------|--------------------------|
--------------------------|--------------------------|
--------------------------|--------------------------|
--5--5--5--5--5--5--5--5--|--1--1--1--1--3--3--3--3--|


  E  E  E  E  E  E  E  S S    E  E  S S S E.  E  S S S S  
---------------------------|-----------------------------|
---------------------------|-----------------------------|
---------------------------|-----------------------------|
--5--5--5--5--5--5--5--5-1-|--L--1--1-1-1-3---3--3-5-5-3-|


  E  S E  S Q.       Q       Q    E  E  E  E  S E.   
--------------------------|-------------------------|
--------------------------|-------------------------|
--------------------------|-------------------------|
--5----3----1------/13----|--1----1--1--1--1--3-3---|


  S S S E  S S S S S S S S E  S    Q    E  E  E  E  S E.   
--------------------------------|-------------------------|
--------------------------------|-------------------------|
--------------------------------|-------------------------|
--5-5-3-5--5-5-5-5-5-5-5-5-3----|--1----1--1--1--1--3-3---|


  S S S E  S S S S S S S S E  S    S S E  E  E  E  E  E  E   
--------------------------------|---------------------------|
--------------------------------|---------------------------|
--------------------------------|---------------5--5--5--5--|
--5-5-3-5--5-5-5-5-5-5-5-5-3----|--1-1-1--1--1--------------|


  E  E  E  E  S E  E  E  S    S S E  S S S E  S S S S S S S  
---------------------------|-------------4-5--------------7-|
---------------------------|--------------------------------|
--------------2-2--3--5--0-|--L-0-0--0-0------0-0-0-0-0-0---|
--0--0--0--0---------------|--------------------------------|


  S S S S S S S S S S S E  E  S    S S E  S S S E  S S S S S S S  
--L-----4-5-4-2-0---------------|-------------4-5--------------7-|
--------------------------------|--------------------------------|
----0-0-----------3-3-3-5--5--0-|--L-0-0--0-0------0-0-0-0-0-0---|
--------------------------------|--------------------------------|


  S S S S S S S S S S S S S S S S    E  E  S S S E.  E  S S S S  
--L-----4-5-4-2-0-----------------|-----5--4-5-------5--4-5-----|
----------------------------------|-----------------------------|
----0-0-----------3-3-3-5---5---0-|--0---------0-0----------0-0-|
----------------------------------|-----------------------------|


  E  E  S E  S S S S E  E  S    E  E  S S S E.  E  S S S S  
-----7--5-7------------------|-----9--7-9-------5--4-5-----|
-----------------------------|-----------------------------|
--L----------0-3-3-3-5--5--0-|--0---------0-0----------0-0-|
-----------------------------|-----------------------------|


  E  E  S E  S S S S S S S S S    E  E  E  E  E  E  E  E   
-----7--5-7--------------------|--------------------------|
-------------------------------|--------------------------|
--L----------0-3-3-3-5---0-0---|--------------------------|
-----------------------------3-|--5--5--5--5--5--5--5--5--|


  E  E  E  E  E  E  E  E     E  E  E  E  E  E  E  S S  
--------------------------|---------------------------|
--------------------------|---------------------------|
--------------------------|---------------------------|
--1--1--1--1--3--3--3--3--|--5--5--5--5--5--5--5--5-1-|


  E  E  S S S E.  E  S S S S    E  E  E  E  E  E  E  E   
-----------------------------|--------------------------|
-----------------------------|--------------------------|
-----------------------------|--------------------------|
--L--1--1-1-1-3---3--3-5-5-3-|--5--5--5--5--5--5--5--5--|


  E  E  E  E  E  E  E  E     E  E  E  E  E  E  E  S S  
--------------------------|---------------------------|
--------------------------|---------------------------|
--------------------------|---------------------------|
--1--1--1--1--3--3--3--3--|--5--5--5--5--5--5--5--5-1-|


  E  E  S S S E.  E  S S S S    E  S E  S Q.     E.  S    Q.     S H        S  
-----------------------------|-------------------------|----------------------|
-----------------------------|-------------------------|----------------------|
-----------------------------|-------------------------|----------------------|
--L--1--1-1-1-3---3--3-5-5-3-|--5----3----1------L---0-|--0------0-3--------5-|


  S T T S T T S T T S T T S T T S T T S S S S  
----------------------------------------------|
----------------------------------------------|
----------------------------------------------|
--L-5-5-5-5-5-5-5-5-5-5-5-5-5-5-5-5-5-5-3---1-|


  S T T S T T S T T S E  T T S T T S T T S S  
---------------------------------------------|
---------------------------------------------|
---------------------------------------------|
--L-1-1-1-1-1-1-1-1-1-3--3-3-3-3-3-3-3-3-3-5-|


  S T T S T T S T T S T T S T T S T T S S S S  
----------------------------------------------|
----------------------------------------------|
----------------------------------------------|
--L-5-5-5-5-5-5-5-5-5-5-5-5-5-5-5-5-5-5-3---1-|


  S T T S T T S T T S E  T T S T T S T T S S  
---------------------------------------------|
---------------------------------------------|
---------------------------------------------|
--L-1-1-1-1-1-1-1-1-1-3--3-3-3-3-3-3-3-3-3-5-|


  S T T S T T S T T S T T S T T S T T S S S S  
----------------------------------------------|
----------------------------------------------|
----------------------------------------------|
--L-5-5-5-5-5-5-5-5-5-5-5-5-5-5-5-5-5-5-3---1-|


  S T T S T T S T T S E  T T S T T S T T S S  
---------------------------------------------|
---------------------------------------------|
---------------------------------------------|
--L-1-1-1-1-1-1-1-1-1-3--3-3-3-3-3-3-3-3-3-5-|


  S T T S T T S T T S T T S T T S T T S S S S  
----------------------------------------------|
----------------------------------------------|
----------------------------------------------|
--L-5-5-5-5-5-5-5-5-5-5-5-5-5-5-5-5-5-5-3---1-|


  S T T S T T S T T S E  T T S T T S T T S S    E  E  S S E  S S E  S S S S  
---------------------------------------------|------------------------------|
---------------------------------------------|------------------------------|
---------------------------------------------|------------------------------|
--L-1-1-1-1-1-1-1-1-1-3--3-3-3-3-3-3-3-3-3-7-|--L--7--7-7-7--7-7-7--7-7-5-3-|


  E  E  S S S E  S E  S S S S    E  E  S S E  S S E  S S S S  
------------------------------|------------------------------|
------------------------------|------------------------------|
------------------------------|------------------------------|
--L--3--3-3-3-5--L-5--5-5-5-7-|--L--7--7-7-7--7-7-7--7-7-5-3-|


  E  E  S S S E  S E  S S S S    S T T S T T S T T S T T S T T S T T S S S S  
------------------------------|----------------------------------------------|
------------------------------|----------------------------------------------|
------------------------------|----------------------------------------------|
--L--3--3-3-3-5--L-5--5-5-5-5-|--L-5-5-5-5-5-5-5-5-5-5-5-5-5-5-5-5-5-5-3---1-|


  S T T S T T S T T S E  T T S T T S T T S S  
---------------------------------------------|
---------------------------------------------|
---------------------------------------------|
--L-1-1-1-1-1-1-1-1-1-3--3-3-3-3-3-3-3-3-3-5-|


  S T T S T T S T T S T T S T T S T T S S S S  
----------------------------------------------|
----------------------------------------------|
----------------------------------------------|
--L-5-5-5-5-5-5-5-5-5-5-5-5-5-5-5-5-5-5-3---1-|


  S T T S T T S T T S E  T T S T T S T T S S    Q.     S H        S  
---------------------------------------------|----------------------|
---------------------------------------------|----------------------|
---------------------------------------------|----------------------|
--L-1-1-1-1-1-1-1-1-1-3--3-3-3-3-3-3-3-3-3-0-|--L------L-3--------L-|


  Q    Q    Q    Q       Q    Q    Q    Q       Q    Q    Q    Q     
----------------------|----------------------|----------------------|
----------------------|----------------------|----------------------|
----------------------|----------------------|----------------------|
-------5---------5----|-------5---------5----|-------5---------5----|


  Q    Q    Q    Q       Q    Q    Q    Q       Q    Q    Q    Q     
----------------------|----------------------|----------------------|
----------------------|----------------------|----------------------|
----------------------|----------------------|----------------------|
-------1---------3----|-------5---------5----|-------5---------5----|


  Q    Q    Q    Q       Q    Q    Q    Q       E  E  E  E  E  E  E  E   
----------------------|----------------------|--------------------------|
----------------------|----------------------|--------------------------|
----------------------|----------------------|--------------------------|
-------5---------5----|-------1---------3----|--5--5--5--5--5--5--5--5--|


  E  E  E  E  E  E  E  E     E  E  E  E  E  E  E  E   
--------------------------|--------------------------|
--------------------------|--------------------------|
--------------------------|--------------------------|
--5--5--5--5--5--5--5--5--|--5--5--5--5--5--5--5--5--|


  E  E  E  E  E  E  E  E     E  E  E  E  E  E  E  E   
--------------------------|--------------------------|
--------------------------|--------------------------|
--------------------------|--------------------------|
--1--1--1--1--3--3--3--3--|--5--5--5--5--5--5--5--5--|


  E  E  E  E  E  E  E  E     E  E  E  E  E  E  E  E   
--------------------------|--------------------------|
--------------------------|--------------------------|
--------------------------|--------------------------|
--5--5--5--5--5--5--5--5--|--5--5--5--5--5--5--5--5--|


  E  E  E  E  E  E  E  E     E  E  E  E  E  E  E  E   
--------------------------|--------------------------|
--------------------------|--------------------------|
--------------------------|--------------------------|
--1--1--1--1--3--3--3--3--|--5--5--5--5--5--5--5--5--|


  E  E  E  E  E  E  E  E     E  E  E  E  E  E  E  S S  
--------------------------|---------------------------|
--------------------------|---------------------------|
--------------------------|---------------------------|
--1--1--1--1--3--3--3--3--|--5--5--5--5--5--5--5--5-1-|


  E  E  S S S E.  E  S S S S    E  E  E  E  E  E  E  E   
-----------------------------|--------------------------|
-----------------------------|--------------------------|
-----------------------------|--------------------------|
--L--1--1-1-1-3---3--3-5-5-3-|--5--5--5--5--5--5--5--5--|


  E  E  E  E  E  E  E  E     E  E  E  E  E  E  E  S S  
--------------------------|---------------------------|
--------------------------|---------------------------|
--------------------------|---------------------------|
--1--1--1--1--3--3--3--3--|--5--5--5--5--5--5--5--5-1-|


  E  E  S S S E.  E  S S S S    E  E  E  E  E  E  E  E   
-----------------------------|--------------------------|
-----------------------------|--------------------------|
-----------------------------|--------------------------|
--L--1--1-1-1-3---3--3-5-5-3-|--5--5--5--5--5--5--5--5--|


  E  E  E  E  E  E  E  E     E  E  E  E  E  E  E  S S  
--------------------------|---------------------------|
--------------------------|---------------------------|
--------------------------|---------------------------|
--1--1--1--1--3--3--3--3--|--5--5--5--5--5--5--5--5-1-|


  E  E  S S S E.  E  S S S S    E  E  E  E  E  E  E  E   
-----------------------------|--------------------------|
-----------------------------|--------------------------|
-----------------------------|--------------------------|
--L--1--1-1-1-3---3--3-5-5-3-|--5--5--5--5--5--5--5--5--|


  E  E  E  E  E  E  E  E     E  E  E  E  E  E  E  S S  
--------------------------|---------------------------|
--------------------------|---------------------------|
--------------------------|---------------------------|
--1--1--1--1--3--3--3--3--|--5--5--5--5--5--5--5--5-1-|


  E  E  S S S E.  E  S S S S    E  S E  S Q.     S E.   
-----------------------------|-------------------------|
-----------------------------|-------------------------|
-----------------------------|-------------------------|
--L--1--1-1-1-3---3--3-5-5-3-|--5----3----1------1-3---|


  S S S S H.             
-----------------------||
-----------------------||
-----------------------||
--5-5-3-5--------------||




Duration Legend
---------------
W - whole
H - half
Q - quarter
E - 8th
S - 16th
T - 32nd
X - 64th
. - note dotted
|-n-|  - n-tuplets


Tablature Legend
----------------
L - tied note
x - dead note
g - grace note
(n) - ghost note
> - accentuded note
NH - natural harmonic
AH - artificial harmonic
TH - tapped harmonic
SH - semi harmonic
PH - pitch harmonic
h - hammer on
p - pull off
b - bend
br - bendRelease
pb - preBend
pbr - preBendRelease
brb - bendReleaseBend
\n/ - tremolo bar dip
\n - tremolo bar dive
-/n - tremolo bar Release up
/n\ - tremolo bar inverted dip
/n - tremolo bar return
-\n - tremolo bar Release down
S - shift slide
s - legato slide
/ -  slide into from below or out of upwards
\ -  slide into from above or out of downwards
~ - vibrato
W - wide vibrato
tr - trill
TP - tremolo picking
T - tapping
S - slap
P - pop
< - fade in
^ - brush up
v - brush down

            
            
Suggest correction
Creating personal tab
Creating personal tab
You can edit any tab online and save it as your Personal.

You can edit, replace or remove any tab part or add personal notes – all changes will be seen only by you.

Personal tabs can be accessed anytime from any device, even offline.
Learn more »
comments
print report bad tab
1 comment total.
0 reply
freakypop 10 Jan 17, 2008 06:27 AM

you forgot every damn scale man dont do a trivium song u dont know the bass palo/brent were bouth amazing bassists

guest
You may want to rate the tab now too:
select rating
Wanna post a correction for this tab? Suggest correction