Oops, an error
Loading. Please wait.

Broken One bass

version 1
version 1

Whole song

Interactive

by Trivium
13,016 views 21 this week
2 commentsread comments
1 2 3 4 5
x 5
add to favorites
×
Save as Personal and add changes to this tab that will be seen only by you. Learn more ›
×
You can save this tab as Personal to edit and correct it or add notes. All changes will be seen only by you. Learn more »
launch autoscroll
font size
0
reset
guitar tuner
edit
Autoscroll
slow
fast
+/-
esc
set tempo
stop
Difficulty
intermediate
trivium
broken one
standard tuning

I am pretty sure this is all 100% correct,

                                                      __________            
   
|--------12------11----------------12------11-----|               |
|-------------9-------9---12----9-------9---------|
|-----------7-------7---------7-------7-------3h5-|               |
|--0----------------------------------------------|
                                                                  |
                                                                 
|---12------11--------------14------12------11-----|              |
|--------7-------7--12---7-------7-------7---------|              |
|------5-------5-------5-------5-------5--------1h3|              |
|--------------------------------------------------|              |
                                                                  |
                                                                  |
|---12-------11----------------12------11-----|                   | repeat
|--------5--------5---12----5-------5---------|                   | till end
|------3--------3---------3-------3--------3h5|                   |
|---------------------------------------------|                   |
                                                                  |
                                                                  |
|---12------11--------------14------12------11-----|              |
|--------7-------7--12---7-------7-------7---------|              |
|------5-------5-------5-------5-------5--------5h7|              |
|--------------------------------------------------|_______________



verse

|-----------------------------------------------------------------------|
|-------------5p4----------7p5-----------9p7---------------2p0-----4p0--|
|---------2-------------3-------------5----------------3h5-----5h7------|
|---0-0-0---------0-0-0--------0-0-0------------0-0-0-------------------|


|-----------------------------------------------------------------------|
|-------------5p4----------7p5-----------9p7----------------------------|
|---------2-------------3-------------5----------------2-2-2--5-5-5-----|
|---0-0-0---------0-0-0--------0-0-0------------0-0-0-------------------|


verse 2X


pre-chorus

|-------------------------------------|
|-------------------------------------|
|--7\2------------3h5---5p3---3h5--7\2| X2
|-------0-0-0-0-0-----0-----0---------|

|----------------------------------------------------------------|
|----------------------------------------------------------------|
|--7\2------------3h5---5p3---3h5---5/7--8\7-7\5-5/7-7/8--8/10-10|
|-------0-0-0-0-0-----0-----0------------------------------------|


chorus
2X
|--------------------------------------------------------------------------|
|----------------------------------5-5-5p4--------------------------5-5-5p4|
|-----3---3-3---3---3-3---3---3-3------------------------------------------|
|-------------------------------------------0---0-0---0--0-0--0--0---------|


then repeat from verse


backing to solo
part 1
|----|---------------------------------------------------------|
|----|---------------------------------------------------------|
|----|--------------------7\2-3-3/5-------------------7\2-3-3/5|
|--0-|---0-0-000-0-0-000--------------0-0-000-0-0-000----------| X3

|------------------------------------------------|
|------------------------------------------------|
|-------------------7\2-3-3/5--------------------|
|---0-0-000-0-0-000------------0-0-000-0-0-000---|

part 2
|------------------------------------------|
|------------------------------------------|
|-7\2-2-2-7\3-3-3-7\5-5-5--5555555555555555|
|------------------------------------------|X3

repeat part 1 and 2


last chorus

wait for singing

|------------------------------------------------------------------|
|-------------------5-5-5\4-----------------5-5-5\4----------------|
|---------------------------3-3-333-3-3-333------------------------|
|--0-0-000-0-0-000----------------------------------0-0-000-0-0-000|fade out


I dont know the outro yet,

if you know it, feel free to use my tab and add it to it,

            
            
Suggest correction
Creating personal tab
Creating personal tab
You can edit any tab online and save it as your Personal.

You can edit, replace or remove any tab part or add personal notes – all changes will be seen only by you.

Personal tabs can be accessed anytime from any device, even offline.
Learn more »
comments
print report bad tab
2 comments total.
0 reply
MAXIM92 10 Mar 28, 2008 01:27 PM

yer dude thats good man good work

0 reply
rhodesthegod 45 Oct 11, 2009 09:49 AM

great work, this is like the greatest bass intro line ever

guest
Wanna post a correction for this tab? Suggest correction