Oops, an error
Loading. Please wait.

Falling To Grey bass

version 1
version 1

Whole song

Interactive

by Trivium
920 views 1 this week
no commentswrite comment
1 2 3 4 5
3 more votes to show rating
add to favorites
×
Save as Personal and add changes to this tab that will be seen only by you. Learn more ›
×
You can save this tab as Personal to edit and correct it or add notes. All changes will be seen only by you. Learn more »
launch autoscroll
font size
0
reset
guitar tuner
edit
Autoscroll
slow
fast
+/-
esc
set tempo
stop
-------------------------------------------------------------------------------
			     FALLING TO GREY- Trivium
-------------------------------------------------------------------------------

Tabbed By : (sic)estMaggot
e-mail: sausage_jim@hotmail.com
Tuning: Standard (EADG)

This is my first tab, so bare with me. Such a great song, i was surprised that no one 
tabbed it already for bass, so i decided to do the hard work for you all.

Intro
G|---------------------------------------------------------------------------|
D|---------------------------------------------------------------------------|
A|---------------------------------------------------------------------------|
E|-7~-----3~-----0~-----2~---5--9--------------------------------------------|
                                                                        x2
G|-------------------------------------------------------------------------|
D|-------------------------------------------------------------------------|
A|-------------------------------------------------------------------------|
E|-777777777777-33333333333333-0000000000000-222222222222-5555555-9999999--|
Pre-Verse
G|---------------------------------------------------------------------------|
D|---------------------------------------------------------------------------|
A|----------------------------5---4-2------7---------------------------------|
E|-7------3-------0~------2-2---2------5-5---5-7h9p5-------------------------|
 Verse                      .   .        .   .                      x3
G|---------------------------------------------------------------------------|
D|---------------------------------------------------------------------------|
A|-----------------------------------------------5---4-2------7--------------|
E|-777777777777-33333333333333-0000000000000-2-2---2------5-5---5-7h9p5------|
 Pre-Chorus                                    .   .        .   .
G|--------------------------------------------------------|
D|--------------------------------------------------------|
A|----------------------5p4---------------5---7---9~------|
E|--7\0000000-3\0000000-----5--7-00000000---0---0---------|
                                            .   .
G|----------------------------------------------------------------|
D|----------------------------------------------------------------|
A|----------------------5p4----------------5p4--------------------|
E|-7\0000000-3\0000000-----5---33333-55555-----5------------------|

Repeat Verse Riff x2

Pre-Chorus Riff x2

Chorus
G|---------------------------------------------------------------------------|
D|---------------------------------------------------------------------------|
A|---------------------------------------------------------------------------|
E|-000000000-222222222-777777777--000000000-222222222-7--9--10--12--10-9-----|

G|---------------------------------------------------------------------------|
D|---------------------------------------------------------------------------|
A|---------------------------------------------------------------------------|
E|-000000000-222222222-777777777-000000000-222222222-777777777---------------|

G|---------------------------------------------------------------------------|
D|---------------------------------------------------------------------------|
A|---------------------------------------------------------------------------|
E|-000000000-222222222-777777777-99995555-000000000-222222222-777777777------|

Verse Riff x2

Pre-Chorus x2

Chorus x1

Bridge/solo (im not 100% about the first line of the bridge)
G|---------------------------------------------------------------------------|
D|---------------------------------------------------------------------------|
A|------------------------------------5-4----5-4-----------------------------|
E|--7~--9~--3~--0~--3~-33--3-3-3-5~-5------5-----5---------------------------|
                                                                        x4
G|---------------------------------------------------------------------------|
D|---------------------------------------------------------------------------|
A|------------------5-4----5-4-----------------------------------------------|
E|--7~--3~--0~--2~-------5-----5---------------------------------------------|

Pre-verse variation
G|-----------------------------------------------------------------------|
D|-----------------------------------------------------------------------|
A|-------------------------------5---4-2------7--------------------------|
E|-7------3-------000000000--2-2---2------5-5---5-7h9p5------------------|

Verse x2

Pre-Chorus x2

Chorus x1

Fin.

| /  slide up
| \  slide down
| h  hammer-on
| p  pull-off
| ~  vibrato
| +  harmonic
| x  Mute note
===============================================================================

            
            
Suggest correction
Creating personal tab
Creating personal tab
You can edit any tab online and save it as your Personal.

You can edit, replace or remove any tab part or add personal notes – all changes will be seen only by you.

Personal tabs can be accessed anytime from any device, even offline.
Learn more »
Give kudos to tab author, rate the tab!
1 2 3 4 5
comments
print report bad tab
guest
You may want to rate the tab now too:
select rating
Wanna post a correction for this tab? Suggest correction