Oops, an error
Loading. Please wait.

Incineration The Broken World tab

version 1
version 1

Whole song

Interactive

by Trivium
6,924 views 3 this week
4 commentsread comments
1 2 3 4 5
x 14
add to favorites
×
Save as Personal and add changes to this tab that will be seen only by you. Learn more ›
×
You can save this tab as Personal to edit and correct it or add notes. All changes will be seen only by you. Learn more »
launch autoscroll
font size
0
reset
how to read this tab
guitar tuner
edit
Autoscroll
slow
fast
+/-
esc
set tempo
stop
Tabbed by: Connor Ford

Band:  Trivium
Song:  Incineration: The Broken World
Album: Vengeance Falls (2013)


Tuning: Drop C# (C#, G#, C#, F#, A#, D#)
(Tune all strings down half a step then drop tune)

####################################################

I included the bass solo for the simple fact; I own
A bass guitar, so why not!

Bass tuning: 5 string Drop C# (G#, C#, G#, C#, F#)

####################################################


If you're fans of Trivium's early stuff, be sure to check out Shogun
and In Waves on my contributions!

Please rate, comment, correct, anything that will help :)





Hammer on:        h
Pull off:         p
Slide up:         /
Slide down:       \
Bend up:          BU(?)
Tapped note:      T
Vibrato:          ~~~
Pinch Harmonic:   PH
Natural Harmonic: NH
Dive Bomb:        DB\\\
After Muting:     M
Pick slide:       X\\\ ('\' indicated duration)

Guitar 1:        Matthew Kiichi Heafy
Guitar 2:        Corey King Beaulieu
Guitar 3:        Corey King Beaulieu (Additional harmonies)
Bass Guitar:     Paolo Francesco Gregoletto


________________________________________________________________________________


Intro
Both guitars
|--------|
|--------|
|--------|
|--------|
|-12\----|
|-12\----|

Guitar 1
|-----------------------------------------------------------------|
|-----------------------------------------------------------------|
|-----------------------------------------------------------------|
|---------------4~~~~-----------4~~~~-----------4~~~~-5-4---4-----|
|---------3-5-6-----------3-5-6-----------3-5-6-----------6---5-6-|
|-0---0---------------0---------------0---------------------------|
|
|Guitar 2
|-----------------------------------------------------------------|
|-----------------------------------------------------------------|
|-----------------------------------------------------------------|
|-0---------------------------------------------------------------|
|-0---------------------------------------------------------------|
|-0---------------------------------------------------------------|

Guitar 1
|-----------------------------------------------------------------|
|-----------------------------------------------------------------|
|-----------------------------------------------------------------|
|---------------4~~~~-----------4~~~~-----------4~~~~-7-5-4-5---4-|
|---------3-5-6-----------3-5-6-----------3-5-6---------------6---|
|-0---0---------------0---------------0---------------------------|
|
|Guitar 2
|-----------------------------------------------------------------|
|-----------------------------------------------------------------|
|-----------------------------------------------------------------|
|-----------------------------------------------------7-5-4-5---4-|
|-------------------------------------------------------------6---|
|-0-M-0-M---------------------------------------------------------|



________________________________________________________________________________


Main Verse
Both guitars
|-----------------------------------------------------------------|
|-----------------------------------------------------------------|
|-----------------------------------------------------------------|
|---------------4~~~~-----------4~~~~-----------4~~~~-5-4---4-----|
|---------3-5-6-----------3-5-6-----------3-5-6-----------6---5-6-|
|-0---0---------------0---------------0---------------------------|

|-----------------------------------------------------------------|
|-----------------------------------------------------------------|
|-----------------------------------------------------------------|
|---------------4~~~~-----------4~~~~-----------4~~~~-7-5-4-5---4-|
|---------3-5-6-----------3-5-6-----------3-5-6---------------6---|
|-0---0---------------0---------------0---------------------------|


________________________________________________________________________________


Verse 1 part 1
Guitar 1
|-----------------------------------------------------------------|
|-----------------------------------------------------------------|
|-----------------------------------------------------------------|
|-0---------------------------------------------------------------|
|-0---------------------------------------------------------------|
|-0---------------------------------------------------------------|
|
|Guitar 2
||--------------------||-1st-ending-----------|-2nd-ending--------------|
|o--------------------o|----------------------|-------------------------|
||--------------------||---------11h12p11--11-|-11h12p11--11------------|
||-12-0-0-10-0-0-12-0-||-0-13-0-0--------13---|---------13--12-13-10-12-|
|o--------------------o|----------------------|-------------------------|
||--------------------||----------------------|-------------------------|

Guitar 1
|-----------------------------------------------------------------|
|-----------------------------------------------------------------|
|-----------------------------------------------------------------|
|-5---------------------------------------------------------------|
|-5---------------------------------------------------------------|
|-5---------------------------------------------------------------|
|
|Guitar 2
||--------------------||-1st-ending-----------|-2nd-ending--------------|
|o--------------------o|---------11h13p11--11-|-11h13p11--11------------|
||-12-0-0-11-0-0-12-0-||-0-14-0-0--------14---|---------14--12-14-11-12-|
||--------------------||----------------------|-------------------------|
|o--------------------o|----------------------|-------------------------|
||--------------------||----------------------|-------------------------|

Guitar 1
|-----------------------------------------------------------------|
|-----------------------------------------------------------------|
|-----------------------------------------------------------------|
|-0---------------------------------------------------------------|
|-0---------------------------------------------------------------|
|-0---------------------------------------------------------------|
|
|Guitar 2
||--------------------||-1st-ending-----------|-2nd-ending--------------|
|o--------------------o|----------------------|-------------------------|
||--------------------||---------11h12p11--11-|-11h12p11--11------------|
||-12-0-0-10-0-0-12-0-||-0-13-0-0--------13---|---------13--12-13-10-12-|
|o--------------------o|----------------------|-------------------------|
||--------------------||----------------------|-------------------------|

Guitar 1
  Tr------------------------------
|------------------------------------------------------------------|
|------------------------------------------------------------------|
|------------------------------------------------------------------|
|----------------------------------1-----------0-------------------|
|----------------------------------1-----------0-------------------|
|-10-------------------------------1-----------0-------------------|
|
|Guitar 2
  Tr------------------------------
|------------------------------------------------------------------|
|------------------------------------------------------------------|
|------------------------------------------------------------------|
|-13-----------12-----------10-----8-----------7-------------------|
|------------------------------------------------------------------|
|------------------------------------------------------------------|


________________________________________________________________________________

Verse 1 part 2
Guitar 1
|-----------------------------------------------------------------|
|-----------------------------------------------------------------|
|-----------------------------------------------------------------|
|-----------------------------------------------------------------|
|-----------------------------------------------------------------|
|-0-0-0-0-0-0-0-0-0-0-0-0-0-0-0-0-0-0-0-0-0-0-0-0-0-0-0-0-0-0-0-0-|
|
|Guitar 2
||--------------------||-1st-ending-----------|-2nd-ending--------------|
|o--------------------o|----------------------|-------------------------|
||--------------------||---------11h12p11--11-|-11h12p11--11------------|
||-12-0-0-10-0-0-12-0-||-0-13-0-0--------13---|---------13--12-13-10-12-|
|o--------------------o|----------------------|-------------------------|
||--------------------||----------------------|-------------------------|

Guitar 1
|-----------------------------------------------------------------|
|-----------------------------------------------------------------|
|-----------------------------------------------------------------|
|-----------------------------------------------------------------|
|-----------------------------------------------------------------|
|-5-5-5-5-5-5-5-5-5-5-5-5-5-5-5-5-5-5-5-5-5-5-5-5-5-5-5-5-5-5-5-5-|
|
|Guitar 2
||--------------------||-1st-ending-----------|-2nd-ending--------------|
|o--------------------o|---------11h13p11--11-|-11h13p11--11------------|
||-12-0-0-11-0-0-12-0-||-0-14-0-0--------14---|---------14--12-14-11-12-|
||--------------------||----------------------|-------------------------|
|o--------------------o|----------------------|-------------------------|
||--------------------||----------------------|-------------------------|

Guitar 1
|-----------------------------------------------------------------|
|-----------------------------------------------------------------|
|-----------------------------------------------------------------|
|-----------------------------------------------------------------|
|-----------------------------------------------------------------|
|-0-0-0-0-0-0-0-0-0-0-0-0-0-0-0-0-0-0-0-0-0-0-0-0-0-0-0-0-0-0-0-0-|
|
|Guitar 2
||--------------------||-1st-ending-----------|-2nd-ending--------------|
|o--------------------o|----------------------|-------------------------|
||--------------------||---------11h12p11--11-|-11h12p11--11------------|
||-12-0-0-10-0-0-12-0-||-0-13-0-0--------13---|---------13--12-13-10-12-|
|o--------------------o|----------------------|-------------------------|
||--------------------||----------------------|-------------------------|

Guitar 1
  Tr------------------------------
|------------------------------------------------------------------|
|------------------------------------------------------------------|
|------------------------------------------------------------------|
|----------------------------------1-----------0-------------------|
|----------------------------------1-----------0-------------------|
|-10-------------------------------1-----------0-------------------|
|
|Guitar 2
  Tr------------------------------
|------------------------------------------------------------------|
|------------------------------------------------------------------|
|------------------------------------------------------------------|
|-13-----------12-----------10-----8-----------7-------------------|
|------------------------------------------------------------------|
|------------------------------------------------------------------|

________________________________________________________________________________


Verse 2
Both guitars
|-----------------------------------|
|-----------------------------------|
|-------------------------------3PH-|
|-----7---5/7---8---7---------------|
|-0---5---3/5---6---5---------------|
|-0-0---0-----0---0---0-0-0-1-4-----|

Guitar 1
|---------------------------------|
|---------------------------------|
|---------------------------------|
|-----7---5/7---8---7-------------|
|-0---5---3/5---6---5-------------|
|-0-0---0-----0---0---0-0-1-1-1-0-|
|
|Guitar 2
|-------------------------------------|
|-------------------------------------|
|-------------------------12-12-12-11-|
|-----7---5/7---8---7-----------------|
|-0---5---3/5---6---5-----10-10-10--9-|
|-0-0---0-----0---0---0-0-------------|

Both guitars
|-----------------------------------|
|-----------------------------------|
|-------------------------------3PH-|
|-----7---5/7---8---7---------------|
|-0---5---3/5---6---5---------------|
|-0-0---0-----0---0---0-0-0-1-4-----|

Both guitars
|---------------------------------|
|---------------------------------|
|---------------------------------|
|---------------------------------|
|-0-5-4-0-1-4-0-7-5-0-7-8-0-5PH~~-|
|-0-5-4-0-1-4-0-7-5-0-7-8-0-------|
________________________________________________________________________________


Repeat Verse 1 part 1

Repeat Verse 1 part 2

Repeat Verse 2

________________________________________________________________________________


Chorus
Guitar 1
|-----------------------------------------------------------------|
|-----------------------------------------------------------------|
|-----------------------------------------------------------------|
|-1-1-1-1-1-1-1-1-1-1-1-1-1-1-1-1-3-3-3-3-3-3-3-3-3-3-3-3-3-3-3-3-|
|-1-1-1-1-1-1-1-1-1-1-1-1-1-1-1-1-3-3-3-3-3-3-3-3-3-3-3-3-3-3-3-3-|
|-1-1-1-1-1-1-1-1-1-1-1-1-1-1-1-1-3-3-3-3-3-3-3-3-3-3-3-3-3-3-3-3-|
|
|Guitar 2
|---------------------------------------------------------------------|
|---------------------------------------------------------------------|
|-12-------------15------19------17-----------------------------------|
|----------------------------------------------13-12-13-12-10---------|
|-10-------------13------17------15--------------------------13-12-13-|
|---------------------------------------------------------------------|

Both guitars
|-----------------------------------------------------------------|
|-----------------------------------------------------------------|
|-----------------------------------------------------------------|
|-----------------------------------------------------------------|
|-5-3-5-----5-3-5-----5-3-5-----8-5-3-5-----5-3-5-----5-3-5-0-0-0-|
|-5-3-5-5-5-5-3-5-5-5-5-3-5-8-8-8-5-3-5-5-5-5-3-5-5-5-5-3-5-0-0-0-|

Guitar 1
|-----------------------------------------------------------------|
|-----------------------------------------------------------------|
|-----------------------------------------------------------------|
|-1-1-1-1-1-1-1-1-1-1-1-1-1-1-1-1-3-3-3-3-3-3-3-3-3-3-3-3-3-3-3-3-|
|-1-1-1-1-1-1-1-1-1-1-1-1-1-1-1-1-3-3-3-3-3-3-3-3-3-3-3-3-3-3-3-3-|
|-1-1-1-1-1-1-1-1-1-1-1-1-1-1-1-1-3-3-3-3-3-3-3-3-3-3-3-3-3-3-3-3-|
|
|Guitar 2
|-----------------------------------------------------------------|
|-----------------------------------------------------------------|
|-12-------------15------19------17--------------20------19--17---|
|-----------------------------------------------------------------|
|-10-------------13------17------15--------------18------17--15---|
|-----------------------------------------------------------------|

________________________________________________________________________________


Pre Breakdown
Guitar 1
|---------------------------------|
|---------------------------------|
|---------------------------------|
|-0-------------------------------|
|-0-------------------------------|
|-0-------------------------------|
|
|Guitar 2
|-----------------------------------------------------|
|-----------------------------------------------------|
|-----------------------------------------------------|
|------------------------------------12-11-12~~~~~~~~-|
|---5-4-5-----8-7-8-----12-10-12----------------------|
|-0---------0---------0------------0------------------|

Guitar 1
|-----------------------------------------------------------|
|-----------------------------------------------------------|
|-----------------------------------------------------------|
|--------------------------12-11-12-----15-14-15-BU(17)(15)-|
|---8-7-8-----12-10-12--------------------------------------|
|-0---------0------------0------------0---------------------|
|
|Guitar 2
|--------------------------------------------------------|
|--------------------------------------------------------|
|--------------------------------------------------------|
|------------------------------------12-11-12-BU(14)(12)-|
|---5-4-5-----8-7-8-----13-12-13-------------------------|
|-0---------0---------0------------0---------------------|


________________________________________________________________________________


Breakdown
Guitar 1
|----------------------------------------------|
|----------------------------------------------|
|----------------------------------------------|
|---------------------------10h12p10-8---------|
|---8-7-8---10---12-10-12--------------12-10-8-|
|-0-------0----0----------0--------------------|
|
|Guitar 2
|-------------------------------------|
|-------------------------------------|
|-------------------------------------|
|-----------------------7h8p7-5-------|
|---5-4-5---7---8-7-8-----------8-7-5-|
|-0-------0---0-------0---------------|

Guitar 1
|---------------------------------------------------|
|---------------------------------------------------|
|---------------------------------------------------|
|-----------------------7-5-3-------8-7-5-----------|
|---8-7-8---5---7-8-7---------7-5-4-------8-7-5-7-8-|
|-0-------0---0-------0-----------------------------|
|
|Guitar 2
|---------------------------------------------------|
|---------------------------------------------------|
|---------------------------------------------------|
|-----------------------3-2-0-------5-3-2-----------|
|---5-4-5---1---4-5-4---------4-1-0-------5-4-1-4-5-|
|-0-------0---0-------0-----------------------------|


________________________________________________________________________________


Solo 1 (MKH)
Guitar 1 (Lead)
|----------------------------|
|----------------------------|
|-12BU(13)~~~~-(12)-10~~~~~~-|
|----------------------------|
|----------------------------|
|----------------------------|

|--------------------------------------------------------------------------|
|---------11--------------11-13-14-14---13---11--------13---11-------------|
|-10-12-13--13-12-10-12-13------------------------13-------------13---12---|
|--------------------------------------------------------------------------|
|--------------------------------------------------------------------------|
|--------------------------------------------------------------------------|

|----------------------------|
|----------------------------|
|-15BU(16)~~~~-(15)-13~~~~~~-|
|----------------------------|
|----------------------------|
|----------------------------|

|--------------------------------------------------------------------------|
|---------14--------------14-16-17-17---16---14--------16---14-------------|
|-13-15-16--16-15-13-15-16------------------------16-------------16---15---|
|--------------------------------------------------------------------------|
|--------------------------------------------------------------------------|
|--------------------------------------------------------------------------|

|------------------|
|------------------|
|-17BU(19)~~~~~~~~-|
|------------------|
|------------------|
|------------------|

Guitar 2 (Rhythm)
|-----------------------------------------------------------------|
|-----------------------------------------------------------------|
|-----------------------------------------------------------------|
|-----------------------------------------------------------------|
|-----------------------------------------------------------------|
|-3-3-3-3-3-3-3-3-3-3-3-3-3-3-3-3-3-3-3-3-3-3-3-3-3-3-3-3-3-3-3-3-|

|-----------------------------------------------------------------|
|-----------------------------------------------------------------|
|-----------------------------------------------------------------|
|-----------------------------------------------------------------|
|-----------------------------------------------------------------|
|-6-6-6-6-6-6-6-6-6-6-6-6-6-6-6-6-6-6-6-6-6-6-6-6-6-6-6-6-6-6-6-6-|

________________________________________________________________________________


Repeat Breakdown

________________________________________________________________________________


Solo 2 (CKB)
Guitar 2 (Lead)
|---------------------------------------------------------------------|
|---------------------------------------------------------------------|
|---------------------------------10--10---10-12-13-12-10-12-13-12~~~-|
|--------------------10-------10----10--10----------------------------|
|-/8~~~~~~-10-8-10-11--11-8-11--11------------------------------------|
|---------------------------------------------------------------------|

|------------------------------------------15-16-18-18-16-15----------|
|---------14--------------14-16-17-14-16-17------------------17-16-14-|
|-13-15-16--16-15-13-15-16--------------------------------------------|
|---------------------------------------------------------------------|
|---------------------------------------------------------------------|
|---------------------------------------------------------------------|

                  T       T                         T       T
|--------9h12h15-18p15p12-----------------12h15h18-21p18p15---------|
|-------------------------------------------------------------------|
|-9h12h15----------------18p15p12-12h15h18-----------------21p18p15-|
|-------------------------------------------------------------------|
|-------------------------------------------------------------------|
|-------------------------------------------------------------------|

|-----------|
|-----------|
|-3NH-DB\\\-|
|-----------|
|-----------|
|-----------|

Guitar 1 (Rhythm)
|-----------------------------------------------------------------|
|-----------------------------------------------------------------|
|-----------------------------------------------------------------|
|-----------------------------------------------------------------|
|-----------------------------------------------------------------|
|-3-3-3-3-3-3-3-3-3-3-3-3-3-3-3-3-3-3-3-3-3-3-3-3-3-3-3-3-3-3-3-3-|

|-----------------------------------------------------------------|
|-----------------------------------------------------------------|
|-----------------------------------------------------------------|
|-----------------------------------------------------------------|
|-----------------------------------------------------------------|
|-6-6-6-6-6-6-6-6-6-6-6-6-6-6-6-6-6-6-6-6-6-6-6-6-6-6-6-6-6-6-6-6-|


________________________________________________________________________________


Repeat Breakdown

________________________________________________________________________________


Bass solo (PFG)
Bass guitar (Wah-wah pedal)
|-------------------------------------|
|---------12----12-11---------7-------|
|-0----------12-----------------------|
|-------------------------------------|
|-------------------------------------|

|---------------------------------6-----|
|-7-6-7~~~~~~~~~~~~-7BU(8)(7)-5-8---8~~-|
|---------------------------------------|
|---------------------------------------|
|---------------------------------------|

|-------------------------------------|
|-7-6-7---12----12-11---------7-------|
|------------12-----------------------|
|-------------------------------------|
|-------------------------------------|

|-------------------9/10-9-10-13---------|
|-7-6-7~~~~~~~~~~~~--------------15-14~~-|
|----------------------------------------|
|----------------------------------------|
|----------------------------------------|

|-------------------------------13-14-16-14-|
|-14-12-14-------------14-12-14-------------|
|-------------------------------------------|
|-------------------------------------------|
|-------------------------------------------|

|-------------------------------13---14---16-|
|-15-14-15-------------15-14-15--------------|
|--------------------------------------------|
|--------------------------------------------|
|--------------------------------------------|

              T        T        T        T        T        T
|-13-10-13---14p13p11-14p13p11-14p13p11-14p13p11-16p13p11-16p13p11-|
|------------------------------------------------------------------|
|------------------------------------------------------------------|
|------------------------------------------------------------------|
|------------------------------------------------------------------|

   T        T        T        T        T        T
|-16p13p11-16p13p11-17p13p11-17p13p11-17p13p11-17p13p11-|
|-------------------------------------------------------|
|-------------------------------------------------------|
|-------------------------------------------------------|
|-------------------------------------------------------|

   T        T        T        T        T        T        T        T
|-16p14p13-16p14p13-16p14p13-16p14p13-16p14p13-16p14p13-16p14p13-16p14p13-|
|-------------------------------------------------------------------------|
|-------------------------------------------------------------------------|
|-------------------------------------------------------------------------|
|-------------------------------------------------------------------------|

   T        T        T        T        T        T        T        T
|-17p14p13-17p14p13-17p14p13-17p14p13-19p17p14-19p17p14-19p17p14-19p17p14-|
|-------------------------------------------------------------------------|
|-------------------------------------------------------------------------|
|-------------------------------------------------------------------------|
|-------------------------------------------------------------------------|

   T
|-21~~~~~~~~~~~~~-|
|-----------------|
|-----------------|
|-----------------|
|-----------------|


Both guitars (Rhythm)
|---------------------------------|------------------------------------|
|---------------------------------|------------------------------------|
|---------------------------------|------------------------------------|
|---------------------------------|------------------------------------|
|-7-6-7-----7-6-7-----7-6-7-8-8-8-|-7-6-7-----7-6-7-----7-6-7-11-8-----|
|-7-6-7-7-7-7-6-7-7-7-7-6-7-8-8-8-|-7-6-7-7-7-7-6-7-7-7-7-6-7-11-8-----|

|---------------------------------|---------------------------------|
|---------------------------------|---------------------------------|
|---------------------------------|---------------------------------|
|---------------------------------|---------------------------------|
|-7-6-7-----7-6-7-----7-6-7-8-8-8-|-7-6-7-----7-6-7-----7-6-7-3-2-0-|
|-7-6-7-7-7-7-6-7-7-7-7-6-7-8-8-8-|-7-6-7-7-7-7-6-7-7-7-7-6-7-3-2-0-|

|---------------------------------|---------------------------------|
|---------------------------------|---------------------------------|
|---------------------------------|---------------------------------|
|---------------------------------|---------------------------------|
|-2-0-2-----2-0-2-----0---2-0-2---|-3-2-3-----3-2-3-----2---3-2-3---|
|-2-0-2-2-2-2-0-2-2-2-0-0-2-0-2-2-|-3-2-3-3-3-3-2-3-3-3-2-2-3-2-3-3-|

|---------------------------------|---------------------------------|
|---------------------------------|---------------------------------|
|---------------------------------|---------------------------------|
|---------------------------------|---------------------------------|
|-6-3-6-----6-3-6-----3---6-3-6---|-7-6-7-----7-6-7---------7-7-7-7-|
|-6-3-6-6-6-6-3-6-6-6-3-3-6-3-6-6-|-7-6-7-7-7-7-6-7-7-7-7-7-7-7-7-7-|

________________________________________________________________________________


Bridge
Guitar 1
|-------------0-0-0-0-0-0-0-0-0-0-------------0-0-0-0-0-0-0-0-0-0-|
|-1-1-1-0-0-0-1-1-1-1-1-1-1-1-1-1-1-1-1-0-0-0-1-1-1-1-1-1-1-1-1-1-|
|-2-2-2-2-2-2-2-2-2-2-2-2-2-2-2-2-2-2-2-2-2-2-2-2-2-2-2-2-2-2-2-2-|
|-2-2-2-2-2-2-2-2-2-2-2-2-2-2-2-2-2-2-2-2-2-2-2-2-2-2-2-2-2-2-2-2-|
|-0-0-0-0-0-0-0-0-0-0-0-0-0-0-0-0-0-0-0-0-0-0-0-0-0-0-0-0-0-0-0-0-|
|-----------------------------------------------------------------|
|
|Guitar 2
|-------------0-0---------0-------------------0-0---------0-------|
|-1-1-1-0-0-0-1-1---0-------1-----1-1-1-0-0-0-1-1---0-------1-----|
|-2-2-2-2-2-2-2-2-----2-------2---2-2-2-2-2-2-2-2-----2-------2---|
|-2-2-2-2-2-2-2-2-------2-------2-2-2-2-2-2-2-2-2-------2-------2-|
|-0-0-0-0-0-0-0-0-0---------------0-0-0-0-0-0-0-0-0---------------|
|-----------------------------------------------------------------|

Guitar 1
|-1-1-1-0-0-0-1-1-1-1-1-1-1-1-1-1-|
|-3-3-3-3-3-3-3-3-3-3-3-3-3-3-3-3-|
|-2-2-2-2-2-2-2-2-2-2-2-2-2-2-2-2-|
|-0-0-0-0-0-0-0-0-0-0-0-0-0-0-0-0-|
|-0-0-0-0-0-0-0-0-0-0-0-0-0-0-0-0-|
|-0-0-0-0-0-0-0-0-0-0-0-0-0-0-0-0-|
|
|Guitar 2
|---------------------------------|
|---------------------------------|
|---------------------------------|
|-3-3-3-2-2-2-3-3-3-3-3-3-3-3-3-3-|
|-0-0-0-0-0-0-0-0-0-0-0-0-0-0-0-0-|
|-0-0-0-0-0-0-0-0-0-0-0-0-0-0-0-0-|

Guitar 1
|---------------------------------|
|---------------------------------|
|---------------------------------|
|---------------------------------|
|-7~~~~-5~~-3-2~~~~~~~~~~~~~~~~~~-|
|---------------------------------|
|
|Guitar 2
|---------------------------------|
|---------------------------------|
|---------------------------------|
|---------------------------------|
|---------------------------------|
|-10~~~-9~~-7-6~~~~~~~~~~~~~~~~~~-|

________________________________________________________________________________


Repeat Intro

Repeat Main Verse

________________________________________________________________________________


Chorus Variation
Guitar 1
|-----------------------------------------------------------------|
|-----------------------------------------------------------------|
|-----------------------------------------------------------------|
|-1-1-1-1-1-1-1-1-1-1-1-1-1-1-1-1-3-3-3-3-3-3-3-3-3-3-3-3-3-3-3-3-|
|-1-1-1-1-1-1-1-1-1-1-1-1-1-1-1-1-3-3-3-3-3-3-3-3-3-3-3-3-3-3-3-3-|
|-1-1-1-1-1-1-1-1-1-1-1-1-1-1-1-1-3-3-3-3-3-3-3-3-3-3-3-3-3-3-3-3-|
|
|Guitar 2
|---------------------------------------------------------------------|
|---------------------------------------------------------------------|
|-12-------------15------19------17-----------------------------------|
|----------------------------------------------13-12-13-12-10---------|
|-10-------------13------17------15--------------------------13-12-13-|
|---------------------------------------------------------------------|

Both guitars
|-----------------------------------------------------------------|
|-----------------------------------------------------------------|
|-----------------------------------------------------------------|
|-----------------------------------------------------------------|
|-5-3-5-----5-3-5-----5-3-5-----8-5-3-5-----5-3-5-----5-3-5-0-0-0-|
|-5-3-5-5-5-5-3-5-5-5-5-3-5-8-8-8-5-3-5-5-5-5-3-5-5-5-5-3-5-0-0-0-|

Guitar 1
|-----------------------------------------------------------------|
|-----------------------------------------------------------------|
|-----------------------------------------------------------------|
|-1-1-1-1-1-1-1-1-1-1-1-1-1-1-1-1-3-3-3-3-3-3-3-3-3-3-3-3-3-3-3-3-|
|-1-1-1-1-1-1-1-1-1-1-1-1-1-1-1-1-3-3-3-3-3-3-3-3-3-3-3-3-3-3-3-3-|
|-1-1-1-1-1-1-1-1-1-1-1-1-1-1-1-1-3-3-3-3-3-3-3-3-3-3-3-3-3-3-3-3-|
|
|Guitar 2
|-----------------------------------------------------------------|
|-----------------------------------------------------------------|
|-12-------------15------19------17--------------20------19--17---|
|-----------------------------------------------------------------|
|-10-------------13------17------15--------------18------17--15---|
|-----------------------------------------------------------------|

Both guitars
|-----------------------------------------------------------------|
|-----------------------------------------------------------------|
|-----------------------------------------------------------------|
|-----------------------------------------------------------------|
|-5-3-5-----5-3-5-----5-3-5-----8-5-3-5-----5-3-5-----5-3-5-0-0-0-|
|-5-3-5-5-5-5-3-5-5-5-5-3-5-8-8-8-5-3-5-5-5-5-3-5-5-5-5-3-5-0-0-0-|


________________________________________________________________________________


Outro
Both guitars
|-----------------|
|-----------------|
|-7---------------|
|-5---------------|
|-5---------------|
|-5---------------|

________________________________________________________________________________


That's all of it, please rate :)

            
            
Suggest correction
Creating personal tab
Creating personal tab
You can edit any tab online and save it as your Personal.

You can edit, replace or remove any tab part or add personal notes – all changes will be seen only by you.

Personal tabs can be accessed anytime from any device, even offline.
Learn more »
comments
print report bad tab
4 comments total. Showing first comments.
+3 reply
Crousah 234 Oct 14, 2013 10:14 PM

including the bass-solo of course - greatest tabber known to mankind!

0 reply
slipknot836 1,839 Oct 14, 2013 11:19 PM

Haha, thank you very much!

+2 reply
Crousah 234 Oct 15, 2013 10:41 PM

i'm serious! we have to thank you for your great work!

guest
You may want to rate the tab now too:
select rating
Wanna post a correction for this tab? Suggest correction