Oops, an error
Loading. Please wait.

Into The Mouth Of Hell We March bass

version 1
version 1

Whole song

by Trivium
2,062 views 3 this week
4 commentsread comments
1 2 3 4 5
x 8
add to favorites
×
Save as Personal and add changes to this tab that will be seen only by you. Learn more ›
×
You can save this tab as Personal to edit and correct it or add notes. All changes will be seen only by you. Learn more »
launch autoscroll
font size
0
reset
guitar tuner
backing track
0:00
0:00
edit
Autoscroll
slow
fast
+/-
esc
set tempo
stop
Author
Difficulty
Band:  Trivium 
Song:  Into The Mouth Of Hell We March
Album: Shogun

##############################################################
#My friend 'Suckmybassriffs' tabbed this song but then had   #
#trouble submitting it, because it apparently would not      #
#show up and only the writing at the top would be displayed  #
#and the tab wouldn't lol So he messaged me the tab and asked#
#me to sumbit it from my account to see if I'd have any luck #
#                                                            #
#All credits to him... Suckmybassriffs/Kurt                  #
#                                                            #
#Everything below this is his tab and his words              #
#                                                            #
##############################################################


UPDATE: 04/11/2013 - All glitches found and fixed,
                     the tab now shows in full.

Seen as how no body else has tabbed it..... This song is played 
on a 5 string bass but if you don't own a 5 string you can tune 
your bass to (B,E,A,D) seen as how you don't 
need the G string.



Intro 
G||-----------------------------------------------------------|
D||-----------------------------------------------------------| 
A||-----------------------------------------------------------| 
E||-------------------------------0-0-0----0----0-0-0---------| 
B||-1-1-1-XX-1-XX-1-1-1-XX-1/3-XX-------XX---XX-------XX-3-XX-| 



Verse 1 (you can play this) 
    PM---   --   --   -   -----   --   --   - 
G||---------------------------------------------|
D||------------5--------4------------5--------2-| 
A||-------3---------3-----------3---------------|
E||---------------------------------------3-----|
B||-1-111---11---11---1---1-111---11---11---1---| 

(or to simplify it) 
G||--------------------------------------------------|
D||--------------------------------------------------|
A||--------------------------------------------------| 
E||--------------------------------------------------|
B||-1-111-1-1-1-1-1-1-1-1-1--1-111-1-1-1-1-1-1-1-1-1-|


G||-------------------------------------------------|
D||-------------------------------------------------|
A||-------3---3-------3---3-------7---7-------7---7-|
E||-0-000---0---0-000---0---0-000---0---0-000---0---|
B||-------------------------------------------------| 



Verse 2 
G||-------------------------|-------------------------| 
D||-------------------------|-------------------------| 
A||-3-333-3-3-3-3-3-3-3-3-3-|-3-333-3-3-3-3-3-3-3-3-3-| 
E||-------------------------|-------------------------| 
B||-------------------------|-------------------------|

G||-------------------------|-------------------------|
D||-------------------------|-------------------------| 
A||-7-777-7-7-7-7-7-7-7-7-7-|-7-777-7-7-7-7-7-7-7-7-7-| 
E||-------------------------|-------------------------| 
B||-------------------------|-------------------------|

G||-------------------------|-------------------------| 
D||-------------------------|-------------------------| 
A||-3-333-3-3-3-3-3-3-3-3-3-|-3-333-3-3-3-3-3-3-3-3-3-| 
E||-------------------------|-------------------------| 
B||-------------------------|-------------------------|

G||-------------------------|-------------------------| 
D||-------------------------|-------------------------| 
A||-7-777-7-7-7-7-7-7-7-7-7-|-3-3-3-3-3-3-------------| 
E||-------------------------|-------------3-3-3-3-3-3-| 
B||-------------------------|-------------------------| 



Chorus 
G||-------------------|----------------------| 
D||-------------------|----------------------| 
A||-------------------|----------------------| 
E||-------------------|----------------------| 
B||-1-1-3--3-33-5-3-5-|1-1-3--3-33-5-3-5-5-3-|

G||-------------------|------------------------| 
D||-------------------|------------------------| 
A||-------------------|------------------------| 
E||-------------------|------------------------| 
B||-1-1-3--3-33-5-3-5-|1-1-3--3-33-8~-7~-5~-3~-| 



Middle section 
G||---------------------------| 
D||---------------------------| 
A||---------------------------| 
E||---------------------------| 
B||-5~~~~-3~~~~-1~~~~-0~~-3~~-|

G||-----------------------------------------------| 
D||-----------------------------------------------| 
A||-----------------------------------------------| 
E||-----------------------------------------------| 
B||-5-5-5-5/--3-3-3-3/--1-1-1-1--0-0-0-0--3-3-3-3-|

G||------------------------------------------------| 
D||-----------------------------------------------o| 
A||------------------------------------------------| 
E||-----------------------------------------------o| 
B||-5-5-5-5/--3-3-3-3/--1-1-1-1--0-0-0-0--3-3-3-3--|

G||-----------------------------------------------------------------------| 
D||----------------------------------------------------------------------o| 
A||-----------------------------------------------------------------------| 
E||----------------------------------------------------------------------o| 
B||-5555555555555555-3333333333333333-1111111111111111-00000000-33333333--|



Solo Backing

Part 1
G||------------------------------------------------------------------------| 
D||------------------------------------------------------------------------| 
A||-----------------------------------------------------------------12-12\-| 
E||-000-0-000-0h5h7--0-000-0-000-0h7h8--0-000-0-000-0h8h10--0-000-0-12-12\-| 
B||------------------------------------------------------------------------|

Part 2
G||---------------------------------|| 
D||--------------------------------o|| 
A||---7-7-7---5-5-5---3-3-3---2-2-2-|| 
E||--------------------------------o|| 
B||-5-------3-------1-------0-------|| 



Outro 
G||-------|-------|-------|-------|---------------| 
D||-------|-------|-------|-------|-0-------------| 
A||-3~~~~-|-5~~~~-|-3~~~~-|-5~~~~-|---------------| 
E||-------|-------|-------|-------|---------------| 
B||-------|-------|-------|-------|---------------|

Song in order:
Intro   x4
verse 1 x4
verse 2 x2
chorus  x2
verse 1 x2
verse 2 x2
chorus  x2
middle section
solo backing part 1 x3
solo backing part 2 x2
solo backing part 1 x2
solo backing part 2 x4
verse 1 x2
verse 2 x1
chorus  x4
outro   x1

            
            
Suggest correction
Creating personal tab
Creating personal tab
You can edit any tab online and save it as your Personal.

You can edit, replace or remove any tab part or add personal notes – all changes will be seen only by you.

Personal tabs can be accessed anytime from any device, even offline.
Learn more »
comments
print report bad tab
4 comments total. Showing first comments.
+1 reply
Mr.Feather 90 Oct 22, 2010 05:51 AM

Nice tab.

...Is what I would say if I could see it.

+2 reply
slipknot836 1,849 Oct 29, 2010 10:27 AM

Nice one :L I don't know why the tab hasn't came up

+2 reply
slipknot836 1,849 Jul 04, 2013 01:18 PM

I don't know why people even bother to rate this tab if there's nothing here. There's a problem with certain submissions on this website. Even though when the tab goes to be edited, the full version appears, but as soon as the tab gets submitted it cuts out at about 15-20 lines. Apparently similar situations have happened to a few submissions of this same tab.

guest
You may want to rate the tab now too:
select rating
Wanna post a correction for this tab? Suggest correction