Oops, an error
Loading. Please wait.

Requiem bass

version 1
version 1

Whole song

by Trivium
2,390 views 3 this week
3 commentsread comments
1 2 3 4 5
2 more votes to show rating
add to favorites
×
Save as Personal and add changes to this tab that will be seen only by you. Learn more ›
×
You can save this tab as Personal to edit and correct it or add notes. All changes will be seen only by you. Learn more »
launch autoscroll
font size
0
reset
guitar tuner
edit
Autoscroll
slow
fast
+/-
esc
set tempo
stop
Author
This is the song Requiem by Trivium, off the album Ember to Inferno 
There is no tab for this great song and im surprised so i made this one. 
It seems right to me, the timing wont be right in the tab but you can figure it out for your self,
refer to the CD for correct timings. if anyone has any changes please contact me:)
Email - luke2478@hotmail.com

Intro - 
G|----------------------------------------|
D|------------------------------5-4-2-0---|
A|--3-3-------3-3--3-3--------------------|
E|--------0------------0------------------|

G|-------------------------------------------------------------------------|
D|----------------------------------------------------5555-44444-2222-0000-|
A|--3-3-3-3-3-3/5-----------3-3-3-3-3-3-5/7~-------------------------------|
E|----------------0-0-0-0-0-----------------0-0-0-0-0----------------------|

Verse                                             ___
G|---------------------------------------------| |
D|---------------------------------------------| |
A|-3-3-3-3-3-3-3-3-3/5-------------------------| |
E|---------------------0-0-0-0-0-0-0-0-0-0-0-0-| |
                                                 | Repeat x 2
G|---------------------------------------------| |
D|---------------------------------------------| |
A|-3-3-3-3-3-3-3-3-3/7-------------------------| |
E|---------------------0-0-0-0-0-0-0-0-0-0-0-0-| |___

G|-------------------------------------------------------------------------|
D|----------------------------------------------------5555-44444-2222-0000-|
A|--3-3-3-3-3-3/5-----------3-3-3-3-3-3-5/7~-------------------------------|
E|----------------0-0-0-0-0-----------------0-0-0-0-0----------------------|

Verse 2                                           
G|---------------------------------------------| 
D|---------------------------------------------|
A|-3-3-3-3-3-3-3-3-3/5-------------------------|
E|---------------------0-0-0-0-0-0-0-0-0-0-0-0-| 
                                                 
G|---------------------------------------------| 
D|---------------------------------------------| 
A|-3-3-3-3-3-3-3-3-3/7-------------------------| 
E|---------------------0-0-0-0-0-0-0-0-0-0-0-0-| 


Prechorus                                             
G|---------------------------------------------------------------------| 
D|---------------------------------------------------------------------| 
A|-----------------10\9/10-------------------------10\9/10-------------| 
E|-3p0-00000---------------000000-3p2h3--3p0-000000------------0000000-| 
                                                     
G|---------------------------------------------|-------| 
D|-------------------------------------------o-|-------| 
A|---33--33--33--33--33----77--77---77--77-7-o-|-9-10-9| on second one
E|---------------------------------------------|-------|
 
G|------------------------------------------|------| 
D|------------------------------------------|------| 
A|---3-3-3-3-3-5------------3-3-3-3-3-5-7---|-9-10-| on second one
E|---------------0-0-0-0-0-0----------------|------|
 
Chorus
G|----------------------------------------------------|
D|------------------------5---4---7---5-------------o-|  
A|--------5---5--5----3—----33--33--33--33----------o-|
E|-0----------------------------------------3--2—-3---|

Verse 3

G|---------------------------------------------| 
D|---------------------------------------------| 
A|-3-3-3-3-3-3-3-3-3/5-------------------------| 
E|---------------------0-0-0-0-0-0-0-0-0-0-0-0-|
                                                 
G|---------------------------------------------| 
D|---------------------------------------------| 
A|-3-3-3-3-3-3-3-3-3/7-------------------------| 
E|---------------------0-0-0-0-0-0-0-0-0-0-0-0-| 

Prechorus                                             
G|---------------------------------------------------------------------| 
D|---------------------------------------------------------------------| 
A|-----------------10\9/10-------------------------10\9/10-------------| 
E|-3p0-00000---------------000000-3p2h3--3p0-000000------------0000000-| 
                                                     
G|---------------------------------------------|-------| 
D|-------------------------------------------o-|-------| 
A|---33--33--33--33--33----77--77---77--77-7-o-|-9-10-9| on second one
E|---------------------------------------------|-------|

G|------------------------------------------|------| 
D|------------------------------------------|------| 
A|---3-3-3-3-3-5------------3-3-3-3-3-5-7---|-9-10-| on second one
E|---------------0-0-0-0-0-0----------------|------|
 
Chorus
G|----------------------------------------------------|
D|------------------------5---4---7---5-------------o-|  
A|--------5---5--5----3—----33--33--33--33----------o-|
E|-0----------------------------------------3--2—-3---|

Bridge

G|-------------|-----------------|
D|-------------|-----------------|
A|-------------|-----------------|
E|-0-----------|-0--0000-0-8-10--|

G|-------------------------------------------------------------|
D|-------------------------------------------------------------|
A|----10----9----10----9---7-----10----9----12---10---9---9h10-|
E|-00----00---00----00--0-----00----00---00----0----0---0------|

G|-------------------------------------------|
D|-------------------------------------------| Repeat x 2
A|----10----9----10----9---7--333333-555555--| 
E|-00----00---00----00--0--------------------|

Solo
G|-------------|----------------|------------|
D|-------------|----------------|------------|
A|-------3---5-|----------3-5---|-------3-5--|
E|-0-----------|-0--0000--------|-0----------|

Breakdown
G|-------------------------------------------|
D|-----------------------------------------o-|
A|-----------------------------------------o-|
E|-0---/8-8-8-8-8/3-3-3-3-3/5-5-5-5-5--------| 

G|---------------------------|
D|---------------------------|
A|---------------------------|
E|-0-0-0-0-0-0-0-0-0-0-0-0-0-| 

G|--------------------------------------------|
D|--------------------------------------------|
A|---------3-3-3-3-3--------------------------|
E|-0-0-0-0-----------3-3-3-3-3--5-5-5-5-5-5---| 

Verse 4

G|---------------------------------------------| 
D|---------------------------------------------| 
A|-3-3-3-3-3-3-3-3-3/5-------------------------| 
E|---------------------0-0-0-0-0-0-0-0-0-0-0-0-|
                                                 
G|---------------------------------------------| 
D|---------------------------------------------| 
A|-3-3-3-3-3-3-3-3-3/7-------------------------| 
E|---------------------0-0-0-0-0-0-0-0-0-0-0-\-| 

Prechorus                                             
G|---------------------------------------------------------------------| 
D|---------------------------------------------------------------------| 
A|-----------------10\9/10-------------------------10\9/10-------------| 
E|-3p0-00000---------------000000-3p2h3--3p0-000000------------0000000-|  
                                                     
G|---------------------------------------------|-------| 
D|-------------------------------------------o-|-------| 
A|---33--33--33--33--33----77--77---77--77-7-o-|-9-10-9| on second one
E|---------------------------------------------|-------|

G|------------------------------------------|------| 
D|------------------------------------------|------| 
A|---3-3-3-3-3-5------------3-3-3-3-3-5-7---|-9-10-| on second one
E|---------------0-0-0-0-0-0----------------|------|
 
Chorus
G|----------------------------------------------------|
D|------------------------5---4---7---5-------------o-|  
A|--------5---5--5----3—----33--33--33--33----------o-|
E|-0----------------------------------------3--2—-3---|

Outro

G|----------------------------------------|
D|----------------------------------------|
A|--3-3---------3-3-----------------------|
E|--------0-----------0-------------------|

Thanks
Enjoy



            
            
Suggest correction
Creating personal tab
Creating personal tab
You can edit any tab online and save it as your Personal.

You can edit, replace or remove any tab part or add personal notes – all changes will be seen only by you.

Personal tabs can be accessed anytime from any device, even offline.
Learn more »
Give kudos to tab author, rate the tab!
1 2 3 4 5
comments
print report bad tab
3 comments total.
+1 reply
taylarocks11 10 Dec 12, 2008 10:28 PM

OMGOSH this is the coolest tab i've ever seen you are my idol!!! XD
catchya later BB4L hahah :p nice work

0 reply
shavorules42 161 May 03, 2009 06:48 AM

i thot trivium played in drop d on ember to inferno. i kno they did on ascendancy and after that they used 7 string guitars in standard and a 5 string bass in standard

0 reply
luke2478 30 May 15, 2009 06:02 AM

im pretty sure the whole of ember to inferno is in standard tuning. they only used 7 string guitar's on shogun.

guest
You may want to rate the tab now too:
select rating
Wanna post a correction for this tab? Suggest correction