Oops, an error
Loading. Please wait.

Rising bass

version 1
version 1

Whole song

Interactive

by Trivium
523 views 1 this week
1 commentread comment
1 2 3 4 5
1 last vote to show rating
add to favorites
×
Save as Personal and add changes to this tab that will be seen only by you. Learn more ›
×
You can save this tab as Personal to edit and correct it or add notes. All changes will be seen only by you. Learn more »
launch autoscroll
font size
0
reset
guitar tuner
edit
Autoscroll
slow
fast
+/-
esc
set tempo
stop
Trivium - The Rising (The Crusade)
95 BPM - 2/4
4-string bass - Drop-C tuning (CGCF)
Transcribed 100% by ear by Krakenbrau
Please send questions, comments, corrections to krakenbrau@gmail.com.

Legend:                 Timing:
\ - slide/bend down     W - whole note          W. - dotted whole note
/ - slide/bend up       H - half note           H. - dotted half note
b - bend                Q - quarter note        Q. - dotted quarter note
h - hammer-on           E - eighth note         E. - dotted eighth note
p - pull-off            S - sixteenth note      S. - dotted sixteenth note
~ - sustain             N - thirty-second note  N. - dotted thirty-second note
+ - harmonic            ' - thirty-second note triplet (3/S)
                        t - sixteenth note triplet (3/E)
                        T - eighth note triplet (3/Q)
                        T.- quarter note triplet (3/H)

'D.S.' - Return to the bar marked 'S' and play from there, one time

Notes:
I transcribed this one using PowerTab and exported it, but I didn't like
how that looked, so I fixed it up.
This should be pretty accurate.  It's a pretty easy tune.
                                                                     x3|
F|-----------------|------------|------------------|-------------------|
C|-----------------|------------|*-----------------|------------------*|
G|-7-5---5---------|------------|*-----------------|------------------*|
C|-----8---8-7-5-7-|-8-7-5-7-5--|--2---2---2---2---|-2---2---2---2-----|
   S S S S S S S S   S S S S Q     S S S S S S S S   S S S S S S S S   

                             |S
F|---------------|-----------|------------------|
C|---------------|-----------|*-----------------|
G|---------------|-----------|*-----------------|
C|-2---2---2---0-|-7--5b7r=2-|--2---2---2---2---|
   S S S S S S E   Q  E.   S    S S S S S S S S

                  x3|
F|------------------|---------------|
C|-----------------*|---------------|
G|-----------------*|---------------|
C|-2---2---2---2----|-2---2---2---0-|
   S S S S S S S S    S S S S S S E

F|-----------|---------|---------|---------|---------|----------|---------|
C|-----------|---------|---------|---------|---------|*---------|---------|
G|-----------|---------|---------|---------|---------|*---------|---------|
C|-7--5b7r=2-|-2-2-2-2-|-2-2-2-2-|-2-2-2-2-|-7-7-5-5-|--2-2-2-2-|-2-2-2-2-|
   Q  E.   S   E E E E   E E E E   E E E E   E E E E    E E E E   E E E E

                                                       |          1|
F|---------|-----------|---------|-----------|---------|-----------|
C|---------|-----------|---------|-----------|---------|----------*|
G|---------|-----------|---7-----|-----------|---------|----------*|
C|-2-2-2-2-|-2-2-2-2-5-|-5---2-2-|-2-2-2-2-5-|-5-2-2-2-|-2-2-2-2---|
   E E E E   E E E S S   E E E E   E E E S S   E E E E   E E E E

                                                                 |1/4
F|-----------------|--------------|----------|---------|---------|------|
C|-----------------|--------------|*---------|---------|---------|------|
G|---7-5-----------|--------------|*---------|---------|---------|------|
C|-2-----8-7-8-7-5-|-7-8-7-5-7-5--|--2-2-2-2-|-2-2-2-2-|-2-2-2-2-|-2-2--|
   S S S S S S S S   S S S S S E.    E E E E   E E E E   E E E E   E E

 |2/4                                          D.S.|Dbl. Time (4/4, 180 BPM)
F|---------|---------|---------|---------|---------|------|-----|
C|---------|---------|---------|--------*|---------|------|-----|
G|---------|---------|---------|--------*|---------|------|-----|
C|-0-0-0-0-|-0-0-0-7-|-7-7-7-7-|-7-7-5---|-5-5-5-5-|-2~~~~|~~~~~|
   E E E E   E E E E   E E E E   E E Q     E E E E   W     (W)

F|------|------|------|-------------|-----------------|------------------|
C|------|------|------|-------------|-----------------|------------------|
G|------|------|------|-----7-7-7-7-|-7-7-7-7-7-7-7-7-|-7-7-7-7-7-7-7-7--|
C|~~~~~~|~~~~~~|~~~~~~|~~~~---------|-----------------|------------------|
  (W)    (W)    (W)    (H)  E E E E   E E E E E E E E   E E E E E E E E

F|-----------------|-----------------|--------------------|-----------------|
C|-----------------|-----------------|*-------------------|-----------------|
G|-7-7-7-7-7-7-7-7-|-7-7-5---5-----7~|*~~~~-7-7-7-7-7-7-7-|-7-7-7-7-7-7-7-3~|
C|-----------------|-------8---8-7---|--------------------|-----------------|
   E E E E E E E E   E E E E E E E E   (E)  E E E E E E E   E E E E E E E E

                                                           |
F|-------------------|-----------------|-------------------|-----------------|
C|-------------------|-----------------|-------------------|-----------------|
G|~~~~-3-3-3-3-3-3-3-|-3-3-3-3-3-3-3-7~|~~~~-7-7-7-7-7-7-7-|-7-7-7-7-7-7-7-5~|
C|-------------------|-----------------|-------------------|-----------------|
  (E)  E E E E E E E   E E E E E E E E  (E)  E E E E E E E   E E E E E E E E

                                       1|2
F|-------------------|------------------|-----------------|-----------------|
C|-------------------|-----------------*|-----------------|-----------------|
G|~~~~-5-5-5-5-5-5---|---------------7-*|-7-7-7-7-7-7-7-7-|-5-----5-----5-5-|
C|-----------------7-|-7-7-7-7-7-7-7----|-----------------|---5-----5-------|
  (E)  E E E E E E E   E E E E E E E E    E E E E E E E E   E E E E E E E E

                |Norm. Time (2/4, 95 BPM)      |1/4  |2/4
F|--------------|----------|---------|---------|-----|---------|
C|--------------|*---------|---------|---------|-----|---------|
G|---5-5---5-7--|*---------|---------|---------|-----|---------|
C|--------------|--2-2-2-2-|-2-2-2-2-|-2-2-2-2-|-2-2-|-0-0-0-0-|
   E E E E E Q.    E E E E   E E E E   E E E E   E E   E E E E

F|---------|---------|---------|---------|----------|---------|----------|
C|---------|---------|--------*|---------|*---------|---------|----------|
G|---------|---------|--------*|---------|*---------|---------|----------|
C|-0-0-0-7-|-7-7-7-7-|-7-7-5---|-5-5-5-5-|--2-2-2-2-|-2-2-2-2-|-2-2-2-2--|
   E E E E   E E E E   E E Q     E E E E    E E E E   E E E E   E E E E

 |1/4  |2/4                                  x4|
F|-----|---------|---------|---------|---------|-----------------|
C|-----|---------|---------|---------|--------*|-----------------|
G|-----|---------|---------|---------|--------*|-7-7-5---5-------|
C|-2-2-|-0-0-0-0-|-0-0-0-7-|-7-7-7-7-|-7-7-5---|-------8---8-7-5-|
   E E   E E E E   E E E E   E E E E   E E Q     S S S S S S S S

F|------------------||
C|------------------||
G|------------------||
C|-7-8-7-5-7-5-0-2\-||
   S S S S S S S S

            
            
Suggest correction
Creating personal tab
Creating personal tab
You can edit any tab online and save it as your Personal.

You can edit, replace or remove any tab part or add personal notes – all changes will be seen only by you.

Personal tabs can be accessed anytime from any device, even offline.
Learn more »
Give kudos to tab author, rate the tab!
1 2 3 4 5
comments
print report bad tab
1 comment total.
0 reply
EkkyDethrax 20 Apr 16, 2012 02:45 AM

Sure this just isn't played on a 5 string?
Never heard about Trivium playing Drop C, especially not on the Crusade. They used 6 and 7/4 and 5 stringed guitars/basses.

guest
You may want to rate the tab now too:
select rating
Wanna post a correction for this tab? Suggest correction