Oops, an error
Loading. Please wait.

Shattering The Skies Above bass

version 2
version 2

Whole song

by Trivium
5,605 views 3 this week
no commentswrite comment
1 2 3 4 5
x 3
add to favorites
×
Save as Personal and add changes to this tab that will be seen only by you. Learn more ›
×
You can save this tab as Personal to edit and correct it or add notes. All changes will be seen only by you. Learn more »
launch autoscroll
font size
0
reset
guitar tuner
backing track
0:00
0:00
edit
Autoscroll
slow
fast
+/-
esc
set tempo
stop
Difficulty
intermediate
TRIVIUM - Shattering The Skies Above

Note for Tuning: if u have a 5-string like i do it's ADADG otherwise just use normal 
D tuning if u have a 4-string. So for this tab i will be using 4-string tuning, i could use 
but it really doesn't matter so, whatever.

Ok, here we go

INTRO

G|--------|-1st, 2nd & 3rd|-4th Ending------||
D|--REST--|-Ending--------|-------5h7p5-----||
A|--------|-----0-5-----4-|-----0-------8-7-||
D|--------|-0-3-----0-3---|-0-3-------------||

VERSE 1 [x8]

G|-------------|-1st, 2nd & 3rd|-4th Ending------||
D|-------------|-Ending--------|-------5h7p5-----||
A|-4b-------4b-|-----0-5-----4-|-----0-------8-7-||
D|----0-0-0----|-0-3-----0-3---|-0-3-------------||

VERSE 2 [x2]

G|---------------------------[x3]--|
D|-------------------------------5-|
A|-5-----8-----5-----8-----7-------|
D|---0-0---0-0---0-0---0-0---8-5---|

G|-------------------------|--------------------||
D|-------------------------|5h7p5---------------||
A|-5-----8-----5-----8-----|------8-7-5h7p5-----||
D|---0-0---0-0---0-0---0-0-|----------------8-7-||

CHORUS [x2]

G|------[x2]-------|-------------------------------|---------------------||
D|-----------------|-------------------------------|---------------------||
A|-1--1------------|5-----4-----5-----7-----5---7--|8-----10-----12[x10]-||
D|-------0--0--0-0-|--0-0---0-0---0-0---0-0---0---0|--0-0----0-0---------||

VERSE 1 [x2]
VERSE 1.2

G|----------[x3]---------|-----------------||
D|-----------------------|-------5h7p5-----||
A|-----------------------|-----0-------8-7-||
D|----REST----0000000000-|-0-3-------------||

VERSE 2 [x2]
CHORUS [x2]

Guitar plays breakdown/bridge [x2] then bass comes back in

BRIDGE/BREAKDOWN [x2]

G|---------------------------------|---------------------------------|
D|---------------------------------|---------------------------------|
A|---------------------------------|4444--4444--4444--0000-----------|
D|-0000--0000--0000--0000--000-000-|-----------------------3333-2222-|

GUITAR SOLO PART [x4]

G|-----------------------------||
D|---------------------3-2-3-5-||
A|-1[x24]-3[x8]----------------||
D|--------------0[x24]---------||

G|----------------------------||
D|--------------------3-2-3-5-||
A|----------------------------||
D|-8~~-7~-3~-0-0[x10]---------||

VERSE 2 [x2]
CHORUS [x3]
OUTRO [x2] [same as bridge/breakdown riff]

Ok, done!!!

Keep it metal and if u have anything 2 say regarding this tab or whatever, plz, let me 
I hope i am right, it sounds like it's right, but like i said, let me know what u think.

Cheers!!!

            
            
Suggest correction
Creating personal tab
Creating personal tab
You can edit any tab online and save it as your Personal.

You can edit, replace or remove any tab part or add personal notes – all changes will be seen only by you.

Personal tabs can be accessed anytime from any device, even offline.
Learn more »
Give kudos to tab author, rate the tab!
1 2 3 4 5
comments
print report bad tab
guest
Wanna post a correction for this tab? Suggest correction