Oops, an error
Loading. Please wait.

Sworn bass

version 1
version 1

Whole song

Interactive

by Trivium
195 views 1 this week
no commentswrite comment
1 2 3 4 5
3 more votes to show rating
add to favorites
×
Save as Personal and add changes to this tab that will be seen only by you. Learn more ›
×
You can save this tab as Personal to edit and correct it or add notes. All changes will be seen only by you. Learn more »
launch autoscroll
font size
0
reset
guitar tuner
edit
Autoscroll
slow
fast
+/-
esc
set tempo
stop
Author
Difficulty
----------------------------------------------------------------------------
                             SWORN - Trivium
----------------------------------------------------------------------------

Tabbed By : Henrihell
e-mail: henri-hell@hotmail.com

Tuning: Standard GDAE
Listen to the song to hear how it's played.

Please note that this is a heavily simplified version. I reviewed the tab
because of the upcoming new release and noticed that there's lots of fills
and even leads that I missed years ago when I did the tab. Everything in
this tab should work, but please don't take it as the absolute truth to how
this song is supposed to be played.

  Intro
G|--------|
D|--------|
A|--------|
E|-0------|

G|---------------------------------|
D|---------------------------------|
A|-----7-------5---7-----3---5---3-|x4
E|-0-0---0-0-0---0---0-0---0---0---|

  Verse x3
G|-----------------------------------------------------------------|
D|-----------------------------------------------------------------|
A|-------------5-5-3-3-3-3-3-3-3-3-0-0-0-0-0-0-3-3-2-2-2-2-2-2-2-2-|
E|-0-0-0-0-0-0-----------------------------------------------------|

  Bridge
G|-----------------------------------------|
D|-----------------------------------------|
A|---------------------2r2r2-2r2r2r2-2-2-2-|
E|-0r0r0-0r0r0r0-0-0-0---------------------|

G|-------------------------------------------------------|
D|-------------------------------------------------------|
A|-------------------------------------------------------|
E|-8-8-8-8-8-8-8-8-8-8-8-8-8-8-8-8-5-5-5-5-5-5-5-5-5-5-r-|
 
 Chorus x2
G|---------------------------------------------------|
D|---------------------------------------------------|
A|--------------3--3-3-3-3-3-0--0-0-0-0-0-2--0-------|
E|-0--0-0-0-0-0---------------------------------3-2--|

G|-------------------------------------------------|
D|-------------------------------------------------|
A|--------------3--3-3-3-3/5-0--0-0-0-3-2--0-------|
E|-0--0-0-0-0-0-------------------------------3-2--|

  Verse x2

  Bridge x2

  Chorus x2

  Interlude pt.1 x4
G|-----------------------------------------------------------------|
D|-----------------------------------------------------------------|
A|-----------------2-2-2-2-2/3-3\2-2-2-2-2-2-2-2-2-5-5-5-5-5\3-3\2-|
E|-0-0-0-0-0-0-0-0-------------------------------------------------|

  Interlude pt.2 x8
G|-----------------------------------------------------------------|
D|-----------------------------------------------------------------|
A|-----------------2-r-2-r-2/3r3\2-2-2-2-2-2-2-2-2-5-r-5-r-5\3r3\2-|
E|-0-0-0-0-0-0-0-0-------------------------------------------------|

  Interlude pt.1 x2

  Solo backing x2
G|-------------------------------------|
D|-------------------------------------|
A|----3--2--0--------------------------|
E|-0-----------7--5--3--5--3--2--3--2--|

  Solo backing pt.2 x2
G|---------------------------------------------------------------------------------|
D|---------------------------------------------------------------------------------|
A|---------3-3-3-2-2-2-0-0-0-r-----------------------------------------------------|
E|-0-0-0-r---------------------7-7-7-5-5-5-3-3-3-r-5-5-5-3-3-3-2-2-2-r-3-3-3-2-2-2-|

  Solo backing pt.3 x2
G|-------------------------------------------------|
D|-------------------------------------------------|
A|-----------------2/3-3-3-3\2-2-2-2\0-0-0-0-0-0-0-|
E|-0-0-0-0-0-0-0-0---------------------------------|

G|-----------------------------------------------------------------|
D|-----------------------------------------------------------------|
A|-----------------------------------------------------------------|
E|-5/7-7-7-7\5-5-5-5\3-3-3-3-3-3-3-3/5-5-5-5\3-3-3-3\2-2-2-2-2-2-2-|

  Chorus x4

  Outro x3
G|---------------------------------|
D|-----7-------5---7-----3---5---3-|
A|-0-0---0-0-0---0---0-0---0---0---|
E|---------------------------------|

  Outro pt.2
G|-----------------------------|
D|-----7-------5---7-----3---5-|
A|-0-0---0-0-0---0---0-0---0---|
E|-----------------------------|

  Ending
G|---------------------|
D|---------------------|
A|---------------------|
E|-0-0r-0-0r-0-0r-3-0r-|

| r  rest 
| /  slide up
| \  slide down
============================================================================

            
            
Suggest correction
Creating personal tab
Creating personal tab
You can edit any tab online and save it as your Personal.

You can edit, replace or remove any tab part or add personal notes – all changes will be seen only by you.

Personal tabs can be accessed anytime from any device, even offline.
Learn more »
Give kudos to tab author, rate the tab!
1 2 3 4 5
comments
print report bad tab
guest
You may want to rate the tab now too:
select rating
Wanna post a correction for this tab? Suggest correction