Oops, an error
Loading. Please wait.

The Crusade bass

version 2
version 2
by Trivium
4,543 views 3 this week
no commentswrite comment
1 2 3 4 5
3 more votes to show rating
add to favorites
×
Save as Personal and add changes to this tab that will be seen only by you. Learn more ›
×
You can save this tab as Personal to edit and correct it or add notes. All changes will be seen only by you. Learn more »
launch autoscroll
font size
0
reset
guitar tuner
edit
Autoscroll
slow
fast
+/-
esc
set tempo
stop
Author
                           Trivium - The Crusade
Tabbed By: Azizzle
Standard Tuning

Some parts are messed up, but it sounds pretty good to me.

Intro:
G:--------------|-------------------|
D:--------------|-------------------|
A:--------------|-------------------|
E:--0-----------|---1--4--5--7--8---|
B:--------------|-------------------|

Riff A  (this is my way, if you want the actual way, it is pretty much just running 0's 
the E string.)
G:------------------------------------------------------------|
D:------------------------------------------------------------|
A:------------------------------------------------------------|
E:---20-0-0-20-0-0-20-0-19-0-0-19-0-0-19-0-16-17-19-17-17-0-0-|
B:------------------------------------------------------------|

G:--------------------------------------------------------------|
D:--------------------------------------------------------------|
A:--------------------------------------------------------------|
E:17-0-0-17-0-16-0-0-16-0-0-16-16-0-13-16-17--20-0-0-20-0-0-20-0|
B:--------------------------------------------------------------|

G:----------------------------------------------------|
D:----------------------------------------------------|
A:----------------------------------------------------|
E:19-0-0-19-0-0-19-0-16-17-19-17-17-0-0-17-0-0-17-0---|
B:----------------------------------------------------|

G:---------------------------------------------------------|
D:---------------------------------------------------------|
A:---------------------------------------------------------|
E:-1-1-1-1-1-1-1-1-4-4-4-4-4-4-4-4--8-7-5-8-7-5-7-5-4-7-5-4|
B:---------------------------------------------------------|

G:----------------------------------------|
D:----------------------------------------|
A:----------------------------------------|
E:-1-1-1-1-1-1-1-1-4-4-4-4-4-4-4-4-0---17\|
B:----------------------------------------|


G:---------------------------------------------------------|
D:---------------------------------------------------------|
A:---------------------------------------------------------|
E:-1-1-1-1-1-1-1-1-4-4-4-4-4-4-4-4--8-7-5-8-7-5-7-5-4-7-5-4|
B:---------------------------------------------------------|

G:---------------------------------------|
D:---------------------------------------|
A:---------------------------------------|
E:-1-1-1-1-1-1-1-1-4-4-4-4-4-4-4-4-0-----|
B:---------------------------------------|

Intro Riff Again:
G:--------------|------------------|
D:--------------|------------------|
A:--------------|------------------|
E:--0-----------|--1--4--5--7--8---|
B:--------------|------------------|

Riff A Again:
G:------------------------------------------------------------|
D:------------------------------------------------------------|
A:------------------------------------------------------------|
E:---20-0-0-20-0-0-20-0-19-0-0-19-0-0-19-0-16-17-19-17-17-0-0-|
B:------------------------------------------------------------|

G:--------------------------------------------------------------|
D:--------------------------------------------------------------|
A:--------------------------------------------------------------|
E:17-0-0-17-0-16-0-0-16-0-0-16-16-0-13-16-17--20-0-0-20-0-0-20-0|
B:--------------------------------------------------------------|

G:----------------------------------------------------|
D:----------------------------------------------------|
A:----------------------------------------------------|
E:19-0-0-19-0-0-19-0-16-17-19-17-17-0-0-17-0-0-17-0---|
B:----------------------------------------------------|

G:---------------------------------------------------------|
D:---------------------------------------------------------|
A:---------------------------------------------------------|
E:-1-1-1-1-1-1-1-1-4-4-4-4-4-4-4-4--8-7-5-8-7-5-7-5-4-7-5-4|
B:---------------------------------------------------------|

G:----------------------------------------|
D:----------------------------------------|
A:----------------------------------------|
E:-1-1-1-1-1-1-1-1-4-4-4-4-4-4-4-4-0---17\|
B:----------------------------------------|

G:---------------------------------------------------------|
D:---------------------------------------------------------|
A:---------------------------------------------------------|
E:-1-1-1-1-1-1-1-1-4-4-4-4-4-4-4-4--8-7-5-8-7-5-7-5-4-7-5-4|
B:---------------------------------------------------------|

G:---------------------------------------|
D:---------------------------------------|
A:---------------------------------------|
E:-1-1-1-1-1-1-1-1-4-4-4-4-4-4-4-4-0-----|
B:---------------------------------------|

Riff B:
G:--------------------------------------------------------------------------|
D:-7--7-7--7--7--7-7--6--6-6--6--6--6-6--3--3-3--3--3--3-3--2--2-2--2--2-2-2|
A:--------------------------------------------------------------------------|
E:--------------------------------------------------------------------------|
B:--------------------------------------------------------------------------|

Riff C:
G:------------------------------------------------------|
D:--7-10-7-9-10-7-10-7-9-10-9-7-6-9-6-7-9-6-9-6-7-9-7-6-|
A:------------------------------------------------------|
E:------------------------------------------------------|
B:------------------------------------------------------|

G:-----------------------------------------------|
D:--7------7---7------7--------------------------|
A:8---8-10---8---8-10---10-8-7-8-7-0-------------|
E:-----------------------------------8-7-5-0-7-0-|
B:-----------------------------------------------|

G:------------------------------------------------------|
D:--7-10-7-9-10-7-10-7-9-10-9-7-6-9-6-7-9-6-9-6-7-9-7-6-|
A:------------------------------------------------------|
E:------------------------------------------------------|
B:------------------------------------------------------|

G:-----------------------------------------------|
D:--7------7---7------7--------------------------|
A:8---8-10---8---8-10---10-8-7-8-7-0-------------|
E:-----------------------------------8-7-5-0-7-0-|
B:-----------------------------------------------|

G:------------------------------------------------------|
D:--7-10-7-9-10-7-10-7-9-10-9-7-6-9-6-7-9-6-9-6-7-9-7-6-|
A:------------------------------------------------------|
E:------------------------------------------------------|
B:------------------------------------------------------|

G:-----------------------------------------------|
D:--7------7---7------7--------------------------|
A:8---8-10---8---8-10---10-8-7-8-7-0-------------|
E:-----------------------------------8-7-5-0-7-0-|
B:-----------------------------------------------|

Riff D:
G:---------------------------------------------------------------|
D:---------------------------------------------------------------|
A:---------------------------------------------------------------|
E:-5--5-5---5---5--5-5--4--4-4---4---4--4-4--1--1-1---1---1--1-1-|
B:---------------------------------------------------------------|

G:---------------------|
D:---------------------|
A:---------------------|
E:-0--0-0---0---0--0-0-|
B:---------------------|

G:---------------------------------------------------------------|
D:---------------------------------------------------------------|
A:---------------------------------------------------------------|
E:-5--5-5---5---5--5-5--4--4-4---4---4--4-4--1--1-1---1---1--1-1-|
B:---------------------------------------------------------------|

G:---------------------|
D:---------------------|
A:---------------------|
E:-0--0-0---0---0--0-0-|
B:---------------------|

G:---------------------------------------------------------------|
D:---------------------------------------------------------------|
A:---------------------------------------------------------------|
E:-5--5-5---5---5--5-5--4--4-4---4---4--4-4--1--1-1---1---1--1-1-|
B:---------------------------------------------------------------|

G:---------------------|
D:---------------------|
A:---------------------|
E:-0--0-0---0---0--0-0-|
B:---------------------|

Riff E:
G:----------------------------------------------|
D:----------------------------------------------|
A:----------------------------------------------|
E:-5-5-5-5-5-5-5-5-5-5-5-5-5-5-5-----5--0--1--3-|
B:----------------------------------------------|

Riff F:
G:--------------------------------------------------------------|
D:--------------------------------------------------------------|
A:--------------------------------5--5--5--555-5--555-555-55555-|
E:-5--5--5--555-5--555-555-55555--------------------------------|
B:--------------------------------------------------------------|

G:-----------------------------------------------|
D:-----------------------------------------------|
A:-7--7--7--777-5---555--5555--3-----------------|
E:----------------------------------------7-5-4--|
B:-----------------------------------------------|

Riff G:
G:-------------------------------------------------|
D:-------------------------------------------------|
A:-------------------------------------------------|
E:-5-5-5-5-5-5-5-5-7-7-7-7-7-7-7-7-8-8-8-8-8-8-8-8-|
B:-------------------------------------------------|

G:----------------------------------------------------|
D:----------------------------------------------------|
A:-8--8--8-8--7--7--5--5-5-5--------------------------|
E:----------------------------8--8--8-8--7----7--7--7-|
B:----------------------------------------------------|

Riff C Again:
G:------------------------------------------------------|
D:--7-10-7-9-10-7-10-7-9-10-9-7-6-9-6-7-9-6-9-6-7-9-7-6-|
A:------------------------------------------------------|
E:------------------------------------------------------|
B:------------------------------------------------------|

G:-----------------------------------------------|
D:--7------7---7------7--------------------------|
A:8---8-10---8---8-10---10-8-7-8-7-0-------------|
E:-----------------------------------8-7-5-0-7-0-|
B:-----------------------------------------------|

G:------------------------------------------------------|
D:--7-10-7-9-10-7-10-7-9-10-9-7-6-9-6-7-9-6-9-6-7-9-7-6-|
A:------------------------------------------------------|
E:------------------------------------------------------|
B:------------------------------------------------------|

G:-----------------------------------------------|
D:--7------7---7------7--------------------------|
A:8---8-10---8---8-10---10-8-7-8-7-0-------------|
E:-----------------------------------8-7-5-0-7-0-|
B:-----------------------------------------------|

G:------------------------------------------------------|
D:--7-10-7-9-10-7-10-7-9-10-9-7-6-9-6-7-9-6-9-6-7-9-7-6-|
A:------------------------------------------------------|
E:------------------------------------------------------|
B:------------------------------------------------------|

G:-----------------------------------------------|
D:--7------7---7------7--------------------------|
A:8---8-10---8---8-10---10-8-7-8-7-0-------------|
E:-----------------------------------8-7-5-0-7-0-|
B:-----------------------------------------------|

G:------------------------------------------------------|
D:--7-10-7-9-10-7-10-7-9-10-9-7-6-9-6-7-9-6-9-6-7-9-7-6-|
A:------------------------------------------------------|
E:------------------------------------------------------|
B:------------------------------------------------------|

G:-----------------------------------------------|
D:--7------7---7------7--------------------------|
A:8---8-10---8---8-10---10-8-7-8-7-0-------------|
E:-----------------------------------8-7-5-0-7-0-|
B:-----------------------------------------------|

Riff D Again:
G:---------------------------------------------------------------|
D:---------------------------------------------------------------|
A:---------------------------------------------------------------|
E:-5--5-5---5---5--5-5--4--4-4---4---4--4-4--1--1-1---1---1--1-1-|
B:---------------------------------------------------------------|

G:----------------------|
D:----------------------|
A:----------------------|
E:-0---0-0---0---0--0-0-|
B:----------------------|

Riff E Again:
G:----------------------------------------------|
D:----------------------------------------------|
A:----------------------------------------------|
E:-5-5-5-5-5-5-5-5-5-5-5-5-5-5-5-----5--0--1--3-|
B:----------------------------------------------|

Riff F Again:
G:--------------------------------------------------------------|
D:--------------------------------------------------------------|
A:--------------------------------5--5--5--555-5--555-555-55555-|
E:-5--5--5--555-5--555-555-55555--------------------------------|
B:--------------------------------------------------------------|

G:-----------------------------------------------|
D:-----------------------------------------------|
A:-7--7--7--777-5---555--5555--3-----------------|
E:----------------------------------------7-5-4--|
B:-----------------------------------------------|

Riff G Again:
G:-------------------------------------------------|
D:-------------------------------------------------|
A:-------------------------------------------------|
E:-5-5-5-5-5-5-5-5-7-7-7-7-7-7-7-7-8-8-8-8-8-8-8-8-|
B:-------------------------------------------------|

G:----------------------------------------------------|
D:----------------------------------------------------|
A:-8--8--8-8--7--7--5--5-5-5--------------------------|
E:----------------------------8--8--8-8--7----7--7--7-|
B:----------------------------------------------------|

Riff H:
G:--------------------------------------------------------------|
D:--------------------------------------------------------------|
A:-2-2-2-2-2-2-2-2--2-2-2-2-2-2-2-2-2-2-2-2-2-2-2--2-2-2-2-2-2-2|
E:--------------------------------------------------------------|
B:--------------------------------------------------------------|

G:----------------------------------------|
D:----------------------------------------|
A:----------------------------------------|
E:-2-2-2-2-2-2-2-2--2-2-2-2-2-2-2---------|
B:--------------------------------0-------|

Riff I:
G:------------------------------------------------------------------------|
D:------------------------------------------------------------------------|
A:--------------------------------------------------------7-7-7-7-7-7-7-7-|
E:7-7-7-7-7-7-7-7-9-9-9-9-9-9-9-9-10-10-10-10-10-10-10-10-----------------|
B:------------------------------------------------------------------------|

G:------------------------------------------------------------|
D:----------------------------------------8-8-8-8-8-8-8-8-9---|
A:9-9-9-9-9-9-9-9-10-10-10-10-10-10-10-10---------------------|
E:------------------------------------------------------------|
B:------------------------------------------------------------|

G:----------------6-6-6-6-6-6-6-6-7-7-7-7-7-7-7-7-9-9-9-9-11-11-11-11-|
D:9-9-9-9-9-9-9-9-----------------------------------------------------|
A:--------------------------------------------------------------------|
E:--------------------------------------------------------------------|
B:--------------------------------------------------------------------|

G:12-12-12-12-12-12-12-12-15-15-15-15-15-15-15-15---------|
D:------------------------------------------------9-------|
A:--------------------------------------------------------|
E:--------------------------------------------------------|
B:--------------------------------------------------------|

Riff J:
G:-------------------------------------------|
D:-------------------------------------------|
A:-000--000---000-000--000---000--000-000----|
E:-------------------------------------------|
B:-------------------------------------------|

G:-------------------------------------------|
D:-------------------------------------------|
A:-000--000---000-000--000---000--000-000----|
E:-------------------------------------------|
B:-------------------------------------------|

G:-------------------------------------------|
D:-------------------------------------------|
A:-------------------------------------------|
E:-------------------------------------------|
B:-000--000---000-000--000---000--000-000----|

G:-------------------------------------------|
D:-------------------------------------------|
A:-------------------------------------------|
E:-------------------------------------------|
B:-000--000---000-000--000---000--000-000----|

G:-------------------------------------------|
D:-------------------------------------------|
A:-000--000---000-000--000---000--000-000----|
E:-------------------------------------------|
B:-------------------------------------------|

G:-------------------------------------------|
D:-------------------------------------------|
A:-000--000---000-000--000---000--000-000----|
E:-------------------------------------------|
B:-------------------------------------------|

G:-------------------------------------------|
D:-------------------------------------------|
A:-------------------------------------------|
E:-------------------------------------------|
B:-000--000---000-000--000---000--000-000----|

G:-------------------------------------------|
D:-------------------------------------------|
A:-------------------------------------------|
E:-------------------------------------------|
B:-000--000---000-000--000---000--000-000----|

Slow Part Before Solo:
G:---------------------------------------------------|
D:-4------------------3----4------------------3------|
A:-------5---2----4--------------5---2----4----------|
E:---------------------------------------------------|
B:---------------------------------------------------|

Solo:
G:-6-----6--8------------------------------------|
D:----7-------------------16------16--18b19b18~--|
A:----------------------------16-----------------|
E:-----------------------------------------------|
B:-----------------------------------------------|

G:------------------------6---6-9-6-9-13-9-13-16--13-14-16--16-16h18-|
D:4-7-4-6-7-4-7-4-6-7-4-7---7----------------------------------------|
A:-------------------------------------------------------------------|
E:-------------------------------------------------------------------|
B:-------------------------------------------------------------------|

            ------
            |  3 |
G:14-16-16--181614-13-11-13-13-------------13--------------16--|
D:-------------------------------14-----14-------14-----14-----|
A:-----------------------------------14--------------14--------|
E:-------------------------------------------------------------|
B:-------------------------------------------------------------|

G:--18-14-----------14-16-13-----------13-16-13-14-13-16-13-14-11-13-11-|
D:--------16----16-----------14-----14----------------------------------|
A:-----------16-----------------14--------------------------------------|
E:----------------------------------------------------------------------|
B:----------------------------------------------------------------------|

Riff K:
G:---------------------------------------|
D:---------------------------------------|
A:---------------------------------------| x4
E:---------------------------------------|
B:-7--7--777-3--3--0--0--000-2--2--6--6--|

Riff L:
G:--------1--------------------------------------------|
D:-----------------------------------------------------|
A:----4------------------------------------------2-----|x4
E:-2----2---3-0----0-----------------------2-3-4---4-3-|
B:---------------3---3-2--2----------------------------|

Under Gtr Solo:
G:---------------------------------------------------|
D:---------------------------------------------------|
A:-5--5--555555555-5-5-5-5--1--1--111111111-1-1-1-1--|
E:---------------------------------------------------|
B:---------------------------------------------------|

G:----------------------------------------------|
D:----------------------------------------------|
A:-5--5--555555555-5-5-5-5--1--1--1h3-3--3--3h5-|
E:----------------------------------------------|
B:----------------------------------------------|

G:---------------------------------------------------|
D:---------------------------------------------------|
A:-5--5--555555555-5-5-5-5--1--1--111111111-1-1-1-1--|
E:---------------------------------------------------|
B:---------------------------------------------------|

G:----------------------------------------------|
D:----------------------------------------------|
A:-5--5--555555555-5-5-5-5--1--1--1h3-3--3--3h5-|
E:----------------------------------------------|
B:----------------------------------------------|

G:---------------------------------------------------|
D:---------------------------------------------------|
A:-5--5--555555555-5-5-5-5--1--1--111111111-1-1-1-1--|
E:---------------------------------------------------|
B:---------------------------------------------------|

G:----------------------------------------------|
D:----------------------------------------------|
A:-5--5--555555555-5-5-5-5--1--1--1h3-3--3--3h5-|
E:----------------------------------------------|
B:----------------------------------------------|

Riff M:
G:-----------------------------------------------------------------|
D:-----------------------------------------------------------------|
A:-7-7-7-7-7-7-7-7--7-7-7-7-7-7-7-7-7-7-7-7-7-7-7--7-7-7-7-7-7-7-7-|
E:-----------------------------------------------------------------|
B:-----------------------------------------------------------------|

G:-----------------------------------------------------------------|
D:-----------------------------------------------------------------|
A:-7-7-7-7-7-7-7-7--7-7-7-7-7-7-7-7-7-7-7-7-7-7-7--7-7-7-7-7-7-7-7-|
E:-----------------------------------------------------------------|
B:-----------------------------------------------------------------|

G:-------------------------------------------------------------------|
D:-------------------------------------------------------------------|
A:-7-7-7-7-7-7-7-7--7-7-7-7-7-7-7-7-7-7-7-7-7-7-7--7-7-7-7-7-7-7-7\0-|
E:-------------------------------------------------------------------|
B:-------------------------------------------------------------------|

Riff N:
G:-----------------------------------------|
D:-----------------------------------------|
A:-----------------------------------------|
E:-000--000---000-000--000---000--000-000--|
B:-----------------------------------------|

G:-----------------------------------------|
D:-----------------------------------------|
A:-----------------------------------------|
E:-000--000---000-000--000---000--000-000--|
B:-----------------------------------------|

G:-----------------------------------------|
D:-----------------------------------------|
A:-----------------------------------------|
E:-000--000---000-000--000---000--000-000--|
B:-----------------------------------------|

G:-----------------------------------------|
D:-----------------------------------------|
A:-----------------------------------------|
E:-000--000---000-000--000---000--000-000--|
B:-----------------------------------------|

Riff I Again:
G:------------------------------------------------------------------------|
D:------------------------------------------------------------------------|
A:--------------------------------------------------------7-7-7-7-7-7-7-7-|
E:7-7-7-7-7-7-7-7-9-9-9-9-9-9-9-9-10-10-10-10-10-10-10-10-----------------|
B:------------------------------------------------------------------------|

G:------------------------------------------------------------|
D:----------------------------------------8-8-8-8-8-8-8-8-9---|
A:9-9-9-9-9-9-9-9-10-10-10-10-10-10-10-10---------------------|
E:------------------------------------------------------------|
B:------------------------------------------------------------|

G:----------------6-6-6-6-6-6-6-6-7-7-7-7-7-7-7-7-9-9-9-9-11-11-11-11-|
D:9-9-9-9-9-9-9-9-----------------------------------------------------|
A:--------------------------------------------------------------------|
E:--------------------------------------------------------------------|
B:--------------------------------------------------------------------|

G:12-12-12-12-12-12-12-12-15-15-15-15-15-15-15-15---------|
D:------------------------------------------------9-------|
A:--------------------------------------------------------|
E:--------------------------------------------------------|
B:--------------------------------------------------------|

Riff J Again, Repeat until fade out:
G:-------------------------------------------|
D:-------------------------------------------|
A:-000--000---000-000--000---000--000-000----|
E:-------------------------------------------|
B:-------------------------------------------|

G:-------------------------------------------|
D:-------------------------------------------|
A:-000--000---000-000--000---000--000-000----|
E:-------------------------------------------|
B:-------------------------------------------|

G:-------------------------------------------|
D:-------------------------------------------|
A:-------------------------------------------|
E:-------------------------------------------|
B:-000--000---000-000--000---000--000-000----|

G:-------------------------------------------|
D:-------------------------------------------|
A:-------------------------------------------|
E:-------------------------------------------|
B:-000--000---000-000--000---000--000-000----|

Legend:
P: pull off
h: hammer on
\: slide down
~: vibrato
------
| 3  | : tuplet
000(example):tuplet
b: bend

            
            
Suggest correction
Creating personal tab
Creating personal tab
You can edit any tab online and save it as your Personal.

You can edit, replace or remove any tab part or add personal notes – all changes will be seen only by you.

Personal tabs can be accessed anytime from any device, even offline.
Learn more »
Give kudos to tab author, rate the tab!
1 2 3 4 5
comments
print report bad tab
guest
You may want to rate the tab now too:
select rating
Wanna post a correction for this tab? Suggest correction