Oops, an error
Loading. Please wait.

The Crusade tab

version 3
version 3
by Trivium
4,497 views 1 this week
no commentswrite comment
1 2 3 4 5
1 last vote to show rating
add to favorites
×
Save as Personal and add changes to this tab that will be seen only by you. Learn more ›
×
You can save this tab as Personal to edit and correct it or add notes. All changes will be seen only by you. Learn more »
launch autoscroll
font size
0
reset
how to read this tab
guitar tuner
edit
Autoscroll
slow
fast
+/-
esc
set tempo
stop
#----------------------------------PLEASE NOTE---------------------------------#
#This file is the author's own work and represents their interpretation of the #
#song. You may only use this file for private study, scholarship, or research. #
#------------------------------------------------------------------------------##

                             THE CRUSADE (Bassline)
                             As recorded by Trivuim
                        (From the 2006 Album THE CRUSADE)

Music by Trivium
Transcribed by bighugejake

Gtr I (B E A D G) - 'Bass'

 Intro
  Q=139
 7/4                    4/4
  Gtr I
                                             ~
  H..       +H..         W          +H.      Q
|----------------------|----------|--------------|
|----------------------|----------|--------------|
|----------------------|----------|--------------|
|-0---------(0)--------|-0--------|-(0)------1---|
|----------------------|----------|--------------|


 7/4                    4/4
  H..       +H..         +W
|----------------------|--------|
|----------------------|--------|
|----------------------|--------|
|-0---------(0)--------|-(0)----|
|----------------------|--------|


                  Riff One
 5/4              11/8
        ~
  Q  Q  Q  Q  Q    S S S S S S S S S S S S S S S S S S S S S S
|----------------|---------------------------------------------|
|----------------|---------------------------------------------|
|----------------|---------------------------------------------|
|-1--4--5--7--8--|-0-0-0-0-0-0-0-0-0-0-0-0-0-0-0-0-0-0-0-0-0-0-|
|----------------|---------------------------------------------|


  S S S S S S S S S S S S S S S S S S S S S S
|---------------------------------------------|
|---------------------------------------------|
|---------------------------------------------|
|-0-0-0-0-0-0-0-0-0-0-0-0-0-0-0-0-0-0-0-0-0-0-|
|---------------------------------------------|


  S S S S S S S S S S S S S S S S S S S S S S
|---------------------------------------------|
|---------------------------------------------|
|---------------------------------------------|
|-0-0-0-0-0-0-0-0-0-0-0-0-0-0-0-0-0-0-0-0-0-0-|
|---------------------------------------------|


  S S S S S S S S S S S S S S S S S S S S S S
|-----------------------------------------------|
|-----------------------------------------------|
|-----------------------------------------------|
|-0-0-0-0-0-0-0-0-0-0-0-0-0-0-0-0-0-0-0-0-0-0---|
|-----------------------------------------------|


   Riff Two
   4/4                               3/4
    S S S S S S S S S S S S S S S S   S S S S S S S S S S S S
||----------------------------------|-------------------------|
||o---------------------------------|-------------------------|
||----------------------------------|-------------------------|
||o-1-1-1-1-1-1-1-1-4-4-4-4-4-4-4-4-|-8-7-5-8-7-5-7-5-4-7-5-4-|
||----------------------------------|-------------------------|


                                                                D.C.
 4/4
  S S S S S S S S S S S S S S S S   S S S S S S S S S S S S S S S S
|---------------------------------|-----------------------------------||
|---------------------------------|----------------------------------o||
|---------------------------------|-----------------------------------||
|-1-1-1-1-1-1-1-1-4-4-4-4-4-4-4-4-|-0-0-0-0-0-0-0-0-0-0-0-0-0-0-0-0--o||
|---------------------------------|-----------------------------------||


  Q=160
 6/4                                        5/4
  W              W              W            W
|--------------|--------------|------------|------|
|--------------|--------------|------------|------|
|--------------|--------------|------------|------|
|--------------|--------------|------------|------|
|--------------|--------------|------------|------|


 Riff Three
 6/4
  E  E E E  E E  E E E  E E E
|-----------------------------|
|-7-10-7-9-10-7-10-7-9-10-9-7-|
|-----------------------------|
|-----------------------------|
|-----------------------------|


  E E E E E E E E E E E E   E E E  E E E E E  E E  E E
|-------------------------|----------------------------|
|-6-9-6-7-9-6-9-6-7-9-7-6-|---7------7---7------7------|
|-------------------------|-8---8-10---8---8-10---10-8-|
|-------------------------|----------------------------|
|-------------------------|----------------------------|


 5/4                     6/4
  E E E E E E E E E E     E  E E E  E E  E E E  E E E
|---------------------||------------------------------|
|---------------------||o-7-10-7-9-10-7-10-7-9-10-9-7-|
|---------------8-5-7-||------------------------------|
|-1-4-5-7-5-4-1-------||o-----------------------------|
|---------------------||------------------------------|


  E E E E E E E E E E E E
|--------------------------|
|-6-9-6-7-9-6-9-6-7-9-7-6--|
|--------------------------|
|--------------------------|
|--------------------------|


                              1.                      2.
                              5/4
  E E E  E E E E E  E E  E E   E E E E E E E E E E     E E E E E E E E E E
|----------------------------|----------------------||---------------------|
|---7------7---7------7------|---------------------o||---------------------|
|-8---8-10---8---8-10---10-8-|---------------8-5-7--||-7-7-5-5-------------|
|----------------------------|-1-4-5-7-5-4-1-------o||---------8-8-7-5-4-0-|
|----------------------------|----------------------||---------------------|


 Riff Four
 6/4                                                         5/4
  Q  Q  Q  Q  Q  Q    Q  Q  Q  Q  Q  Q    Q  Q  Q  Q  Q  Q    Q  Q  Q  Q  Q
|-------------------|-------------------|-------------------|------------------|
|-------------------|-------------------|-------------------|------------------|
|-------------------|-------------------|-------------------|------------------|
|-5--5--5--5--5--5--|-4--4--4--4--4--4--|-1--1--1--1--1--1--|-0--0--0--0--4----|
|-------------------|-------------------|-------------------|------------------|


   Riff Five
   6/4
    E E E E E E E E E E E E   E E E E E E E E E E E E
||--------------------------|-------------------------|
||o-------------------------|-------------------------|
||--------------------------|-------------------------|
||o-5-5-5-5-5-5-5-5-5-5-5-5-|-4-4-4-4-4-4-4-4-4-4-4-4-|
||--------------------------|-------------------------|


                           5/4
  E E E E E E E E E E E E   E E E E E E E E E E
|-------------------------|------------------------||
|-------------------------|-----------------------o||
|-------------------------|------------------------||
|-1-1-1-1-1-1-1-1-1-1-1-1-|-0-0-0-0-0-0-0-0-4-4---o||
|-------------------------|------------------------||


 Riff Six
  $
 2/4    4/4
         |-3-| |-3-| |-3-| |-3-|   |-3-| |-3-|
  W      E E E E E E E E E E E E   E E E E E E H
|------|-------------------------|------------------|
|------|-------------------------|------------------|
|------|-------------------------|------------------|
|------|-5-5-5-5-5-5-5-5-5-5-5-5-|-5-5-5-5-5-5------|
|------|-------------------------|------------------|


 3/4
  q  H      q  H      q  H      q  H
|---------|---------|---------|---------|
|---------|---------|---------|---------|
|---------|---------|---------|---------|
|-4-------|-0-------|-1-------|-3-------|
|---------|---------|---------|---------|


 Riff Seven
 4/4
  S S S S E S S E S S E S S   S S S S E S S E S S S S E
|---------------------------|---------------------------|
|---------------------------|---------------------------|
|---------------------------|---------------------------|
|-3s5-5-5-5-5-5-5-5-5-5-3s5-|-5-5-5-5-5-5-5-5-5-5-5-5-5-|
|---------------------------|---------------------------|


  S S S S E S S E S S E S S   S S S S E S S E S S E E
|---------------------------|----------------------------|
|---------------------------|----------------------------|
|-3s5-5-5-5-5-5-5-5-5-5-3s5-|-5-5-5-5-5-5-5-5-5-5-5-7----|
|---------------------------|----------------------------|
|---------------------------|----------------------------|


 Riff Eight
                                6/4
  Q  Q  Q  E E   +Q   Q  Q  Q    Q  Q  Q  Q  Q  Q
|--------------|---------------|---------------------|
|--------------|---------------|---------------------|
|-8--8--8--7-5-|-(5)--5--5--3--|-3--2--2--2--0-------|
|--------------|---------------|----------------4----|
|--------------|---------------|---------------------|


                                                   Riff Nine
                                                   4/4
  S S S S S S S S S S S S S S S S S S S S S S S S   Q  E E E E E  E
|-------------------------------------------------|-------------------|
|-------------------------------------------------|-------------------|
|-0-0-0-0-0-0-0-0-2-2-2-2-2-2-2-2-3-3-3-3-3-3-3-3-|-5--5-5---5----7---|
|-------------------------------------------------|-------------------|
|-------------------------------------------------|-------------------|


                                                To Coda
                                                 |-3-|
  +E  E E E +E  Q.     Q  E E +E  E E E   +H     Q Q Q
|--------------------|------------------|---------------|
|--------------------|------------------|---------------|
|-(7)-7---5-(5)-5----|-3--3-3-(3)-5-3-2-|-(2)----2-2-2--|
|--------------------|------------------|---------------|
|--------------------|------------------|---------------|


   Riff Three (Repeated)
   6/4
    E  E E E  E E  E E E  E E E   E E E E E E E E E E E E
||------------------------------|-------------------------|
||o-7-10-7-9-10-7-10-7-9-10-9-7-|-6-9-6-7-9-6-9-6-7-9-7-6-|
||------------------------------|-------------------------|
||o-----------------------------|-------------------------|
||------------------------------|-------------------------|


                              1.,2.,3.
                              5/4
  E E E  E E E E E  E E  E E   E E E E E E E E E E    4x
|----------------------------|------------------------||
|---7------7---7------7------|-----------------------o||
|-8---8-10---8---8-10---10-8-|---------------8-5-7----||
|----------------------------|-1-4-5-7-5-4-1---------o||
|----------------------------|------------------------||


                       Riff Four
  4.
                       6/4
  E E E E E E E E E E   Q  Q  Q  Q  Q  Q
|---------------------|-------------------|
|---------------------|-------------------|
|-7-7-5-5-------------|-------------------|
|---------8-8-7-5-4-0-|-5--5--5--5--5--5--|
|---------------------|-------------------|


                                            D.S. al Coda
                                         5/4
  Q  Q  Q  Q  Q  Q    Q  Q  Q  Q  Q  Q    Q  Q  Q  Q  Q
|-------------------|-------------------|-----------------|
|-------------------|-------------------|-----------------|
|-------------------|-------------------|-----------------|
|-4--4--4--4--4--4--|-1--1--1--1--1--1--|-0--0--0--0--4---|
|-------------------|-------------------|-----------------|


 Main Riff One
  Q=139
  &
 4/4
  S S S S S S S E S S S S S S S   S S S S S S S E S S S S S S S
|-------------------------------|-------------------------------|
|-------------------------------|-------------------------------|
|-2-2-2-2-2-2-2-2-2-2-2-2-2-2-2-|-2-2-2-2-2-2-2-2-2-2-2-2-2-2-2-|
|-------------------------------|-------------------------------|
|-------------------------------|-------------------------------|


  S S S S S S S E S S S S S S S   S S S S S S S E S S S S S S S
|-------------------------------|--------------------------------|
|-------------------------------|--------------------------------|
|-------------------------------|--------------------------------|
|-2-2-2-2-2-2-2-2-2-2-2-2-2-2-2-|--------------------------------|
|-------------------------------|-0-0-0-0-0-0-0-0-0-0-0-0-0-0-0--|


  S S S S S S S S S S S S S S S S   S S S S S S S S S S S S S S S S
|---------------------------------|---------------------------------|
|---------------------------------|---------------------------------|
|-2-2-2-2-2-2-2-2-4-4-4-4-4-4-4-4-|-5-5-5-5-5-5-5-5-7-7-7-7-7-7-7-7-|
|---------------------------------|---------------------------------|
|---------------------------------|---------------------------------|


  S S S S S S S S  S  S  S  S  S  S  S  S   S S S S S S S S S S S S S S S S
|-----------------------------------------|---------------------------------|
|-----------------------------------------|---------------------------------|
|-9-9-9-9-9-9-9-9-10-10-10-10-10-10-10-10-|---------------------------------|
|-----------------------------------------|-6-6-6-6-6-6-6-6-7-7-7-7-7-7-7-7-|
|-----------------------------------------|---------------------------------|


  S S S S S S S S S S S S S S S S   S S S S S S S S S S S S S S S S
|---------------------------------|---------------------------------|
|---------------------------------|---------------------------------|
|-2-2-2-2-2-2-2-2-4-4-4-4-4-4-4-4-|-5-5-5-5-5-5-5-5-7-7-7-7-9-9-9-9-|
|---------------------------------|---------------------------------|
|---------------------------------|---------------------------------|


  S S S S S S S S S S S S S S S S   S S S S S S S E  S S S S S S S
|---------------------------------|--------------------------------|
|---------------------------------|--------------------------------|
|---------------------------------|--------------------------------|
|-3-3-3-3-3-3-3-3-6-6-6-6-6-6-6-6-|--------------------------------|
|---------------------------------|-0-0-0-0-0-0-0-0--0-0-0-0-0-0-0-|


   Main Riff Two
                  |3|                   |-3-|
    S S E E S S S S E S S S E   S S E E S S S E E S S E
||----------------------------|--------------------------||
||o---------------------------|-------------------------o||
||----------------------------|--------------------------||
||o-5-5-----5-5---5-5---5-5---|-5-5-----5-5-5-5-5-5-5---o||
||----------------------------|--------------------------||


                    |3|                   |-3-|
      S S E E S S S S E S S S E   S S E E S S S E E S S E
|-||----------------------------|--------------------------||
|-||o---------------------------|-------------------------o||
|-||----------------------------|--------------------------||
|-||o---------------------------|-------------------------o||
|-||--0-0-----0-0---0-0---0-0---|-0-0-----0-0-0-0-0-0-0----||


                  |3|                   |-3-|
    S S E E S S S S E S S S E   S S E E S S S E E S S E
||----------------------------|--------------------------||
||o---------------------------|-------------------------o||
||----------------------------|--------------------------||
||o-5-5-----5-5---5-5---5-5---|-5-5-----5-5-5-5-5-5-5---o||
||----------------------------|--------------------------||


                                 1.
                    |3|                   |-3-|
      S S E E S S S S E S S S E   S S E E S S S E E S S E
|-||----------------------------|--------------------------||
|-||o---------------------------|-------------------------o||
|-||----------------------------|--------------------------||
|-||o---------------------------|-------------------------o||
|-||--0-0-----0-0---0-0---0-0---|-0-0-----0-0-0-0-0-0-0----||


  2.
          |-3-|                   |-3-|
  S S E E S S S E E S S E   E E E S S S  E  E Q
|-------------------------|----------------------|
|-------------------------|----------------------|
|-------------------------|----------------------|
|-------------------------|----------------------|
|-0-0-----0-0-0-0-0-0-0---|-0-0-0-0-0-0-12-12-0--|


   [Guitar Main Riff Two]
    Q=166
   11/8                        4/8
    W             W             W
||--------------|-------------|-------||
||o-------------|-------------|------o||
||--------------|-------------|-------||
||o-------------|-------------|------o||
||--------------|-------------|-------||


 Bass Solo
 11/8                                  4/8
  E E E H    H      +H..       +H       W
|-6---6-9---------|-------------------|------|
|---7-------------|-------------------|------|
|------------5----|-(5)--------(5)----|------|
|-----------------|-------------------|------|
|-----------------|-------------------|------|


 11/8
   E  E  E  E  Q      +Q       +Q       +E
|----------18-----------------------------------|
|-16----16----18b19r=(18)b19r=(18)b19r=(18)b19==|
|----16-----------------------------------------|
|-----------------------------------------------|
|-----------------------------------------------|


                                          4/8
                           ~~~~
   +S   +S       +Q       +Q    +Q  H      W
|----------------------------------------|-----|
|-(18)r(18)b19r=(18)b20r=(18)--(18)------|-----|
|----------------------------------------|-----|
|----------------------------------------|-----|
|----------------------------------------|-----|


 11/8                                              4/8
                                                     ~~
  E E E E E E E E E E E   E E E E E E E E  E E  E    H
|-----------------------|-----6---6-9-6-9-13-9-13-|-16----|
|-4-7-4-6-7-6-7-4-6-7-4-|-6-7---7-----------------|-------|
|-----------------------|-------------------------|-------|
|-----------------------|-------------------------|-------|
|-----------------------|-------------------------|-------|


 11/8
  H     Q   E  T  E..  E  E
|------16--16-16s18---14-16-|
|---------------------------|
|---------------------------|
|---------------------------|
|---------------------------|


                            4/8
   Q      +Q    +H..          S  S  S  S  E  E
|-13b14r=(13)--(13)--------|-18-16-14-13-13-13b14r==|
|--------------------------|------------------------|
|--------------------------|------------------------|
|--------------------------|------------------------|
|--------------------------|------------------------|


 11/8                                         4/8
   +Q   H    E Q  E E    H..        Q   E  E    H
|-(13)---------9----9-|-13---------13-----13-|-16----|
|-----------------9---|----------------14----|-------|
|---------------------|----------------------|-------|
|---------------------|----------------------|-------|
|---------------------|----------------------|-------|


 11/8                                                              4/8
   E  E  Q   E  E  E  E  E  Q     E  E  E  E  E  E  E  E  E  E  E    E  E  Q
|-18-14-----------14-16-13-----|-------13-14-13-16-13-14-13-16-13-|-11-13-10--|
|-------16-----16----------14--|----14----------------------------|-----------|
|-----------16-----------------|-14-------------------------------|-----------|
|------------------------------|----------------------------------|-----------|
|------------------------------|----------------------------------|-----------|


   First Guitar Solo
   11/8                                    4/8
    Q  Q  E E E Q  Q    Q  Q  E E E Q  Q    Q  Q     4x
||--------------------|-------------------|----------||
||o-------------------|-------------------|---------o||
||--------------------|-------------------|----------||
||o-------------------|-------------------|---------o||
||--7--7--7-7-7-3--3--|-0--0--0-0-0-2--2--|-6--6-----||


   Riff Ten
   11/8                                          4/8
    Q  E E E E E Q  E E   S S E E E Q  E Q  E E   Q  E E
||----------------------|-----------------------|-----------|
||o---------------------|-----------------------|-----------|
||----------------------|-----------------------|-----------|
||o---------------------|----------------1--1-1-|-4--4-4----|
||--7--7-7-7-7-7-3--3-3-|-0-0-0-0-0-------------|-----------|


 11/8                                          4/8
  Q  E E E E E Q  E E   S S E E E Q  E Q  E E   Q  E E
|---------------------|-----------------------|------------||
|---------------------|-----------------------|-----------o||
|---------------------|-----------------------|------------||
|---------------------|----------------1--1-1-|-4--4-4----o||
|-7--7-7-7-7-7-3--3-3-|-0-0-0-0-0-------------|------------||


            Riff Eleven
 4/4
  W          Q  S S E +Q   S S S S   S S S S S S S S E E E E
|--------||------------------------|-------------------------|
|--------||o-----------------------|-------------------------|
|--------||--5--5-5-5-(5)--5-5-5-5-|-5-5-5-5-5-5-5-5-7-8-7-5-|
|--------||o-----------------------|-------------------------|
|--------||------------------------|-------------------------|


 1.
  Q  S S E +Q   S S S S   S S S S S S S S E E E E
|-----------------------|----------------------------||
|--------3-(3)----------|---------------------------o||
|-1--1-1--------1-1-1-1-|-1-1-1-1-1-1-1-1-1-1-3-3----||
|-----------------------|---------------------------o||
|-----------------------|----------------------------||


  2.
  E S S S S E +E  E E E   E S S S S E +E  S S S S S S
|-----------------------|-----------------------------|
|-----------3-(3)-3-3-3-|-5---------4-(4)-------------|
|-1-1-1-1-1-------------|---3-3-3-3-------3-3-3-3-3-3-|
|-----------------------|-----------------------------|
|-----------------------|-----------------------------|


   2nd & 3rd Grt. Solo/Riff 11
    Q  S S E +Q   S S S S   S S S S S S S S E E E E
||------------------------|--------------------------|
||o-----------------------|--------------------------|
||--5--5-5-5-(5)--5-5-5-5-|-5-5-5-5-5-5-5-5-7-8-7-5--|
||o-----------------------|--------------------------|
||------------------------|--------------------------|


  Q  S S E +Q   S S S S   S S S S S S S S E E E E
|-----------------------|-------------------------|
|--------3-(3)----------|-------------------------|
|-1--1-1--------1-1-1-1-|-1-1-1-1-1-1-1-1-1-1-3-3-|
|-----------------------|-------------------------|
|-----------------------|-------------------------|


  Q  S S E +Q   S S S S   S S S S S S S S E E E E
|-----------------------|--------------------------|
|-----------------------|--------------------------|
|-5--5-5-5-(5)--5-5-5-5-|-5-5-5-5-5-5-5-5-7-8-7-5--|
|-----------------------|--------------------------|
|-----------------------|--------------------------|


  E S S S S E +E  E E E   E S S S S E +E  S S S S S S  3x
|-----------------------|------------------------------||
|-----------3-(3)-3-3-3-|-5---------4-(4)-------------o||
|-1-1-1-1-1-------------|---3-3-3-3-------3-3-3-3-3-3--||
|-----------------------|-----------------------------o||
|-----------------------|------------------------------||


   Intro (Alternative)
    Q=136
    S S S S S S S E S S S S S S S   S S S S S S S E S S S S S S S
||--------------------------------|--------------------------------||
||o-------------------------------|-------------------------------o||
||--7-7-7-7-7-7-7-7-7-7-7-7-7-7-7-|-7-7-7-7-7-7-7-7-7-7-7-7-7-7-7--||
||o-------------------------------|-------------------------------o||
||--------------------------------|--------------------------------||


    S S S S S S S E S S S S S S S   S S S S S S S E S S S S S S S
||--------------------------------|--------------------------------||
||o-------------------------------|-------------------------------o||
||--------------------------------|--------------------------------||
||o-0-0-0-0-0-0-0-0-0-0-0-0-0-0-0-|-0-0-0-0-0-0-0-0-0-0-0-0-0-0-0-o||
||--------------------------------|--------------------------------||


   Main Riff Two (Repeated)
                  |3|                   |-3-|
    S S E E S S S S E S S S E   S S E E S S S E E S S E  4x
||----------------------------|--------------------------||
||o---------------------------|-------------------------o||
||----------------------------|--------------------------||
||o-0-0-----0-0---0-0---0-0---|-0-0-----0-0-0-0-0-0-0---o||
||----------------------------|--------------------------||


 Main Riff One (Repeated)
  S S S S S S S S S S S S S S S S   S S S S S S S S S S S S S S S S
|---------------------------------|---------------------------------|
|---------------------------------|---------------------------------|
|-2-2-2-2-2-2-2-2-4-4-4-4-4-4-4-4-|-5-5-5-5-5-5-5-5-7-7-7-7-7-7-7-7-|
|---------------------------------|---------------------------------|
|---------------------------------|---------------------------------|


  S S S S S S S S  S  S  S  S  S  S  S  S   S S S S S S S S S S S S S S S S
|-----------------------------------------|---------------------------------|
|-----------------------------------------|---------------------------------|
|-9-9-9-9-9-9-9-9-10-10-10-10-10-10-10-10-|---------------------------------|
|-----------------------------------------|-6-6-6-6-6-6-6-6-7-7-7-7-7-7-7-7-|
|-----------------------------------------|---------------------------------|


  S S S S S S S S S S S S S S S S   S S S S S S S S S S S S S S S S
|---------------------------------|---------------------------------|
|---------------------------------|---------------------------------|
|-2-2-2-2-2-2-2-2-4-4-4-4-4-4-4-4-|-5-5-5-5-5-5-5-5-7-7-7-7-9-9-9-9-|
|---------------------------------|---------------------------------|
|---------------------------------|---------------------------------|


  S S S S S S S S S S S S S S S S   S S S S S S S E S S S S S S S
|---------------------------------|-------------------------------|
|---------------------------------|-------------------------------|
|---------------------------------|-------------------------------|
|-3-3-3-3-3-3-3-3-6-6-6-6-6-6-6-6-|-------------------------------|
|---------------------------------|-0-0-0-0-0-0-0-0-0-0-0-0-0-0-0-|


   Main Riff Two (Repeated)
                  |3|                   |-3-|
    S S E E S S S S E S S S E   S S E E S S S E E S S E
||----------------------------|--------------------------||
||o---------------------------|-------------------------o||
||--0-0-----0-0---0-0---0-0---|-0-0-----0-0-0-0-0-0-0----||
||o---------------------------|-------------------------o||
||----------------------------|--------------------------||


                  |3|                   |-3-|
    S S E E S S S S E S S S E   S S E E S S S E E S S E
||----------------------------|--------------------------||
||o---------------------------|-------------------------o||
||----------------------------|--------------------------||
||o---------------------------|-------------------------o||
||--0-0-----0-0---0-0---0-0---|-0-0-----0-0-0-0-0-0-0----||


                  |3|                   |-3-|
    S S E E S S S S E S S S E   S S E E S S S E E S S E
||----------------------------|--------------------------||
||o---------------------------|-------------------------o||
||--0-0-----0-0---0-0---0-0---|-0-0-----0-0-0-0-0-0-0----||
||o---------------------------|-------------------------o||
||----------------------------|--------------------------||


   Outro
                  |3|                   |-3-|
    S S E E S S S S E S S S E   S S E E S S S E E S S E
||----------------------------|--------------------------||
||o---------------------------|-------------------------o||
||----------------------------|--------------------------||
||o---------------------------|-------------------------o||
||--0-0-----0-0---0-0---0-0---|-0-0-----0-0-0-0-0-0-0----||


                  |3|                   |-3-|
    S S E E S S S S E S S S E   S S E E S S S E E S S E
||----------------------------|--------------------------||
||o---------------------------|-------------------------o||
||--0-0-----0-0---0-0---0-0---|-0-0-----0-0-0-0-0-0-0----||
||o---------------------------|-------------------------o||
||----------------------------|--------------------------||


                  |3|                   |-3-|
    S S E E S S S S E S S S E   S S E E S S S E E S S E
||----------------------------|--------------------------||
||o---------------------------|-------------------------o||
||----------------------------|--------------------------||
||o---------------------------|-------------------------o||
||--0-0-----0-0---0-0---0-0---|-0-0-----0-0-0-0-0-0-0----||


                  |3|                   |-3-|
    S S E E S S S S E S S S E   S S E E S S S E E S S E
||----------------------------|--------------------------||
||o---------------------------|-------------------------o||
||--0-0-----0-0---0-0---0-0---|-0-0-----0-0-0-0-0-0-0----||
||o---------------------------|-------------------------o||
||----------------------------|--------------------------||


                  |3|                   |-3-|
    S S E E S S S S E S S S E   S S E E S S S E E S S E
||----------------------------|--------------------------||
||o---------------------------|-------------------------o||
||----------------------------|--------------------------||
||o---------------------------|-------------------------o||
||--0-0-----0-0---0-0---0-0---|-0-0-----0-0-0-0-0-0-0----||


Duration Legend
---------------
W - whole; H - half; Q - quarter; E - 8th; S - 16th; T - 32nd; X - 64th; a - acciaccatura
+ - note tied to previous; . - note dotted; .. - note double dotted
Uncapitalized letters represent notes that are staccato (1/2 duration)
Irregular groupings are notated above the duration line
Duration letters will always appear directly above the note/fret number it represents the
duration for.  Duration letters with no fret number below them represent rests.  Multi-
bar rests are notated in the form Wxn, where n is the number of bars to rest for.  Low
melody durations appear below the staff

Tablature Legend
----------------
 h   - hammer-on
 p   - pull-off
 b   - bend
 pb  - pre-bend
 r   - bend release (if no number after the r, then release immediately)
 /\  - slide into or out of (from/to "nowhere")
 s   - legato slide
 S   - shift slide
  - natural harmonic
[n]  - artificial harmonic
n(n) - tapped harmonic
 ~   - vibrato
 tr  - trill
 T   - tap
 TP  - trem. picking
 PM  - palm muting
\n/  - tremolo bar dip; n = amount to dip
 \n  - tremolo bar down
 n/  - tremolo bar up
/n\  - tremolo bar inverted dip
 =   - hold bend; also acts as connecting device for hammers/pulls
 <>  - volume swell (louder/softer)
 x   - on rhythm slash represents muted slash
 o   - on rhythm slash represents single note slash

Misc Legend
-----------
 |  - bar
||  - double bar
||o - repeat start
o|| - repeat end
*|  - double bar (ending)
 :  - bar (freetime)
 $  - Segno
 &  - Coda
Tempo markers -  = BPM(8/16=s8/s16), where s8 = swing 8ths, s16 = swing 16ths

            
            
Suggest correction
Creating personal tab
Creating personal tab
You can edit any tab online and save it as your Personal.

You can edit, replace or remove any tab part or add personal notes – all changes will be seen only by you.

Personal tabs can be accessed anytime from any device, even offline.
Learn more »
Give kudos to tab author, rate the tab!
1 2 3 4 5
comments
print report bad tab
guest
You may want to rate the tab now too:
select rating
Wanna post a correction for this tab? Suggest correction