Oops, an error
Loading. Please wait.
We have an official The Sin And The Sentence tab made by UG professional guitarists. Check out the tab »
×

The Sin And The Sentence solo tab

version 1
version 1

Solo

  • This is the solo version of The Sin and the Sentence.

Whole song

  • Complete song with Both Gtrs and Solos.

Interactive

by Trivium
1,900 views 24 this week
1 commentread comment
1 2 3 4 5
x 3
add to favorites
×
Save as Personal and add changes to this tab that will be seen only by you. Learn more ›
×
You can save this tab as Personal to edit and correct it or add notes. All changes will be seen only by you. Learn more »
launch autoscroll
font size
0
reset
how to read this tab
guitar tuner
edit
Autoscroll
slow
fast
+/-
esc
set tempo
stop
About this tab version
This is the solo version of The Sin and the Sentence. Was this info helpful? Yes No
The tuning is Eb (Half-Step Down)
It's all done by ear sorry if there are mistakes. 
7th August Uptade: Fixed some mistakes.

[Solo]
e|---------------------------12h13p12----12----------------------------------|
B|-10--9h10--12h13p12----12-----------15----15-13-12-10---s10-10s12-9~-------|
G|---9----------------14-----------------------------------------------------|
D|---------------------------------------------------------------------------|
A|---------------------------------------------------------------------------|
E|---------------------------------------------------------------------------|

e|---------------------20-19-17---------------------------------------------------|
B|10-12-13---18-17-15-----------18-17-15-----------------------------------12b-10-|
G|---------------------------------------17-16-17-16-14-13------------------------|
D|---------------------------------------------------------15-14-12-10------------|
A|--------------------------------------------------------------------------------|
E|--------------------------------------------------------------------------------|
   * *  * *  * *
e|------------------------------------------------------------------------------|
B|-10-9-------------------------------------------------------------------------|
G|------10-9--------------------------------------------------------------------|
D|-----------10-9---------------------------------------------------------------|
A|------------------------------------------------------------------------------|
E|------------------------------------------------------------------------------|

e|---------------------------------------------------------------------------|
B|--------------------------------------------------------15-17-18-15-17-18--|
G|--------------------------------------13-14-16-13-14-16--------------------|
D|-------------------12-14-15-12-14-15---------------------------------------|
A|-11-12-14-11-12-14---------------------------------------------------------|
E|---------------------------------------------------------------------------|

e|-16-17-19-16-17-19-20-19-17-20-19-17--22b-22~-22b-22-20-22-20-19-20b-20-17-19b-19-17-16-12whammybar-|
B|----------------------------------------------------------------------------------------------------|
G|----------------------------------------------------------------------------------------------------|
D|----------------------------------------------------------------------------------------------------|
A|----------------------------------------------------------------------------------------------------|
E|----------------------------------------------------------------------------------------------------|


*********************************************************

| x               mute
| b               bend
| b/==r\          bend and release
| pb              pre-bend
| pb/==r\         pre-bend and release
| h               hammer on left hand
| p               pull off left hand
| /               slide up
| \               slide down
| ~~~             vibrato
| (h)             harmonic
  *               palm mute
*********************************************************

            
            
Suggest correction
Creating personal tab
Creating personal tab
You can edit any tab online and save it as your Personal.

You can edit, replace or remove any tab part or add personal notes – all changes will be seen only by you.

Personal tabs can be accessed anytime from any device, even offline.
Learn more »
Give kudos to tab author, rate the tab!
1 2 3 4 5
comments
print report bad tab
1 comment total.
0 reply
acodchris 10 Oct 19, 2017 08:28 PM

Great job ! 🤘

guest
You may want to rate the tab now too:
select rating
Wanna post a correction for this tab? Suggest correction