Oops, an error
Loading. Please wait.

Throes Of Perdition tab

version 1
version 1

Whole song

by Trivium
44,980 views 27 this week
11 commentsread comments
1 2 3 4 5
x 17
add to favorites
×
Save as Personal and add changes to this tab that will be seen only by you. Learn more ›
×
You can save this tab as Personal to edit and correct it or add notes. All changes will be seen only by you. Learn more »
launch autoscroll
font size
0
reset
how to read this tab
guitar tuner
backing track
0:00
0:00
edit
Autoscroll
slow
fast
+/-
esc
set tempo
stop
Author
Difficulty
Band:   Trivium
Song:   Throes Of Perdition
Album:  Shogun
Tuning: 7 string standard (B,E,A,D,G,B,E) low to high


Update: February 10th, 2017. Updated all riffs and harmonies.

Update: February 17th, 2017. Updated bridge and solo, plus harmonies.


PH: pinch harmonic
NH: natural harmonic
BU: bend up
BR: bend return
PM: palm mute
h:  hammer on
p:  pull off
/:  slide up
\:  slide down
T:  tapping

guitar 1 (corey beaulieu)
guitar 2 (matt heafy)
guitar 3 (harmony)

intro
Guitar 1
E||-----------------------------------------------------|
B||-7--0--0--3--0--5--0--2--0--0--3--0--5-3-2-0-0-0-----|
G||-----------------------------------------------------|
D||-----------------------------------------------------|
A||-----------------------------------------------------|
E||-----------------------------------------------------|
B||-----------------------------------------------------| X14

Guitar 2
    PM--------------------------------------------------|
E||-----------------------------------------------------|
B||-----------------------------------------------------|
G||-----------------------------------------------------|
D||-----------------------------------------------------|
A||-----------------------------------------------------|
E||-7--7--7--7--7--7--7--7--7--7--7--7--7-7-7-7-7-7-----|
B||-----------------------------------------------------| X2

     PM-----------------------------------------------|  
E||---------------------------------------------------|
B||---------------------------------------------------|
G||---------------------------------------------------|
D||---------------------------------------------------|
A||---------------------------------------------------|
E||-5--5--5--5--5--5--5--5--5--5--5--5--5-5-5-5-5-5---|
B||---------------------------------------------------|

    PM--------------------------------------------------|
E||-----------------------------------------------------|
B||-----------------------------------------------------|
G||-----------------------------------------------------|
D||-----------------------------------------------------|
A||-----------------------------------------------------|
E||0--0--0--0--0--0--0--0--0-----0--0--0--0-0-0-0-0-0---|
B||-----------------------------------------------------|


     PM-------------------------------------------------|
E||-----------------------------------------------------|
B||-----------------------------------------------------|
G||-----------------------------------------------------|
D||-----------------------------------------------------|
A||-----------------------------------------------------|
E||3--3--3--3--3--3--3--3--3-----3--3--3--3-3-3-3-3-3---|
B||-----------------------------------------------------| X2

     PM-------------------------------------------------|
E||-----------------------------------------------------|
B||-----------------------------------------------------|
G||-----------------------------------------------------|
D||-----------------------------------------------------|
A||-----------------------------------------------------|
E||-----------------------------------------------------|
B||0--0--0--0--0--0--0--0--0-----0--0--0--0-0-0-0-0-0---| X2

Guitar 2 
    PM--------------------------------------------------|
E||-----------------------------------------------------|
B||-----------------------------------------------------|
G||-----------------------------------------------------|
D||-----------------------------------------------------|
A||-----------------------------------------------------|
E||-7--7--7--7--7--7--7--7--7--7--7--7--7-7-7-7-7-7-----|
B||-----------------------------------------------------| X2
|
|Guitar 3 
|   PM----------------------------------------------|
E||---------------------------------------------------|
B||---------------------------------------------------|
G||---------------------------------------------------|
D||---------------------------------------------------|
A||-5--5--5--5--5--5--5--5--5--5--5--5--5-5-5-5-5-5---|
E||---------------------------------------------------|
B||---------------------------------------------------| X2

Guitar 2 
     PM---------------------------------------------|  
E||---------------------------------------------------|
B||---------------------------------------------------|
G||---------------------------------------------------|
D||---------------------------------------------------|
A||---------------------------------------------------|
E||-5--5--5--5--5--5--5--5--5--5--5--5--5-5-5-5-5-5---|
B||---------------------------------------------------|
|
|Guitar 3 
|   PM----------------------------------------------|
E||---------------------------------------------------|
B||---------------------------------------------------|
G||---------------------------------------------------|
D||---------------------------------------------------|
A||-4--4--4--4--4--4--4--4--4--4--4--4--4-4-4-4-4-4---|
E||---------------------------------------------------|
B||---------------------------------------------------|

Guitar 2 
    PM----------------------------------------------|
E||---------------------------------------------------|
B||---------------------------------------------------|
G||---------------------------------------------------|
D||---------------------------------------------------|
A||---------------------------------------------------|
E||-0--0--0--0--0--0--0--0--0--0--0--0--0-0-0-0-0-0---|
B||---------------------------------------------------|
|
|Guitar 3 
|   PM----------------------------------------------|
E||---------------------------------------------------|
B||---------------------------------------------------|
G||---------------------------------------------------|
D||---------------------------------------------------|
A||---------------------------------------------------|
E||-3--3--3--3--3--3--3--3--3--3--3--3--3-3-3-3-3-3---|
B||---------------------------------------------------|


Guitar 2 
     PM---------------------------------------------|
E||---------------------------------------------------|
B||---------------------------------------------------|
G||---------------------------------------------------|
D||---------------------------------------------------|
A||---------------------------------------------------|
E||-3--3--3--3--3--3--3--3--3--3--3--3--3-3-3-3-3-3---|
B||---------------------------------------------------| X2
|
|Guitar 3
|   PM----------------------------------------------|
E||---------------------------------------------------|
B||---------------------------------------------------|
G||---------------------------------------------------|
D||---------------------------------------------------|
A||---------------------------------------------------|
E||-7--7--7--7--7--7--7--7--7--7--7--7--7-7-7-7-7-7---|
B||---------------------------------------------------|

both guitars
E||---------------------------------------------------|
B||---------------------------------------------------|
G||---------------------------------------------------|
D||---------------------------------------------------|
A||---------------------------------------------------|
E||-2--2--2--2----2--2--2--2--2----2--2--2------------|
B||-0--0--0--0----0--0--0--0--0----0--0--0------------|


verse 1
both guitars
E||---------------------------------------------------|
B||---------------------------------------------------|
G||---------------------------------------------------|
D||---------------------------------------------------|
A||---------------------------------------------------|
E||---------------------------------------------------|
B||-7--0--0--3--0--5--0--2--0--0--3--0--5--3--2--0----| X8

verse 2
both guitars
E||---------------------------------------------------|
B||---------------------------------------------------|
G||---------------------------------------------------|
D||---9999-9999-99--8888-8888-88--5555-5555-55--------|
A||---9999-9999-99--9999-9999-99--5555-5555-55--------|
E||---7777-7777-77--6666-6666-66--3333-3333-33--------|
B||---------------------------------------------------|

Guitar 2 
E||-----------------|
B||-----------------|
G||-----------------|
D||-------5---------|
A||-4---4-------4---|
E||---3---------2---|
B||-----------------|
|
|Guitar 1 
E||----------------------|
B||----------------------|
G||----------12-----11---|
D||-11----11-------------|
A||----10----------------|
E||----------------------|
B||----------------------|

Both guitars 
E||-----------------------------------------------------------|
B||-----------------------------------------------------------|
G||-----------------------------------------------------------|
D||---9999-9999-99--8888-8888-88--5555-5555-55----------------|
A||---9999-9999-99--9999-9999-99--5555-5555-55--4444-4444-44--|
E||---7777-7777-77--6666-6666-66--3333-3333-33--3333-3333-22--|
B||-----------------------------------------------------------|


verse 3
guitar 1
E||----------------------------------------------------------|
B||----------------------------------------------------------|
G||-----9BU(11BR9)-----9BU(11BR9)-----6-7-6~~----6--4--3-3~~-|
D||--9--------------8---------------5----------4-------------|
A||----------------------------------------------------------|
E||----------------------------------------------------------|
B||----------------------------------------------------------|


verse 4
both guitars
E||--------------------------------------------|
B||--------------------------------------------|
G||--------------------------------------------|
D||----------------------------------------5---|
A||-2p0-----2p0-----2p0-----2p0-----2p0----3---|X2
E||----------------------------------------3---|
B||-----3p0-----3p0-----3p0-----3p0------------|

E||--------------------------------------------|
B||--------------------------------------------|
G||--------------------------------------------|
D||--------------------------------------------|
A||-5p0-----5p0-----5p0-----5p0-----5p0----7---|
E||----------------------------------------7---|
B||-----3p0-----3p0-----3p0-----3p0------------|

E||---------------------------------------------|
B||---------------------------------------------|
G||---------------------------------------------|
D||---------------------------------------------|
A||-9p0-----9p0-----9p0-----9p0-----9p0----10---|
E||----------------------------------------10---|
B||-----7p0-----7p0-----7p0-----7p0-------------|


Pre chorus
both gutars
      PM-------------------|
E||---------------------------------|
B||---------------------------------|
G||---------------------------------|
D||---------------------------------|
A||---------------------------------|
E||-2-2-2-2-2-2-2-2-2-2-2-2-2-------|
B||-0-0-0-0-0-0-3-3-3-3-3-3-3-------|

chorus
guitar 1
E||-----------------------------------------------------------------------|
B||-----------------------------------------------------------------------|
G||-11-11-11-11-9-9-9-9-11-11-11-11-9-9-9-9-2-2-2-2/4~~~~~~---------------|
D||--9--9--9--9-9-9-9-9--9--9--9--9-9-9-9-9-----------------2-2-2-2/4~~~~-|
A||-----------------------------------------------------------------------|
E||-----------------------------------------------------------------------|
B||-----------------------------------------------------------------------|

E||-------------------------------------|
B||-------------------------------------|
G||-------------------------------------|
D||-5-5-5-5-7-7-7-7-9-9-9-9-11-11-11-11-|
A||-------------------------------------|
E||-------------------------------------|
B||-------------------------------------|


guitar 2 (chorus rhythm)
E||-----------------------------------------------|
B||---x16times---x8times---x8times---x16times-----|
G||--7----------5---------0---------4-------------|
D||--9----------7---------2---------5-------------|
A||--9----------7---------2---------5-------------|
E||--7----------5---------0---------3-------------|
B||-----------------------------------------------|

both guitars.                                   NH---
E||--------------------------------------------------|
B||--------------------------------------------------|
G||--------------------------------------------------|
D||--------------------------------------------------|
A||-------------------2p0----------------------------|
E||-5h7------5h7--------------5h7------5h7------7777-|
B||-----0000-----0000-----3p0-----0000-----0000-7777-|



Bridge
Guitar 1 (play 4 times)
        PM---   -       -----   -       -----   -----   -----
E||-------------------------------------------------------------------|
B||-------------------------------------------------------------------|
G||-------------------------------------------------------------------|
D||-------------------------------------------------------------------|
A||------------------------------------------------------------/9-5-5-|
E||---7-------7---7\5-3-------3---3/5-2-------2-------2-------2-------|
B||---8-8-8-8-8-8-8\7-5-5-5-5-5-5-5/7-0-0-0-0-0-0-0-0-3-3-3-3-3/7-5-5-|
|
| Guitar 2
|       PM---   -       -----   -       -----   -----   -----
E||-------------------------------------------------------------------|
B||-------------------------------------------------------------------|
G||-------------------------------------------------------------------|
D||-------------------------------------------------------------------|
A||-------------------------------------------------------------------|
E||---7-------7---7\5-3-------3---3/5-2-------2-------2-------2/2-0-0-|
B||---8-8-8-8-8-8-8\7-5-5-5-5-5-5-5/7-0-0-0-0-0-0-0-0-3-3-3-3-3/3-2-2-|

Breakdown
both guitars (x4)
     PM---------------------------   PM  PM    PM------       PM  PM
E||--------------------------------|---------|--------------|---------|
B||--------------------------------|---------|--------------|---------|
G||--------------------------------|---------|--------------|---------|
D||--------------------------------|---------|--------------|---------|
A||--------------------------------|---------|--------------|---------|
E||--2222222-2-2222222-2-2222222-2-|---5---5-|-2222222---5PH|---5---5-|
B||--0000000-0-0000000-0-0000000-0-|-0-3-0-3-|-0000000------|-0-3-0-3-|
                                play 1st    play 2nd      play 3rd 
                                 time        time         time
Play 4th time before solo
Both guitars 
E||-------------------------------|
B||-------------------------------|
G||-------------------------------|
D||-------------------------------|
A||-------------------------------|
E||-2---------------2-------12\---|
B||-0---0-0-0-0-0-0-3---3-3-12\---|

Play 4th time after solo 
Guitar 1
E||-------------------------|
B||-------------------------|
G||-------------------------|
D||-4-2---2-----------------|
A||-----5---5-4-5-4-2-4-2---|
E||-----------------------5-|
B||-------------------------|
|
|Guitar 2 
E||-------------------------|
B||-------------------------|
G||-------------------------|
D||-7-5-4-5-4---4-----------|
A||-----------7---7-5-7-5-4-|
E||-------------------------|
B||-------------------------|


Solo 1 (CKB)
Guitar 1 
E||------------------------------------------------------------------9BU(10)(9)-|
B||-----------------------------------------------------------------------------|
G||---17\----4~~-4-6-7-11~~--11h12p11-9-7-6--6h-7p6---------6h7p6---------------|
D||-------------------------------------------------9-7~~~--------7-------------|
A||-----------------------------------------------------------------------------|
E||-----------------------------------------------------------------------------|
B||-----------------------------------------------------------------------------|
|
|Guitar 3
E||------------------------------------------------------------------12BU(14)(12)|
B||------------------7-10~~--10h12p10-8-7-5--5h-7p5---------5h7p5----------------|
G||---17\----7~~-7-9--------------------------------7-6~~~--------6--------------|
D||------------------------------------------------------------------------------|
A||------------------------------------------------------------------------------|
E||------------------------------------------------------------------------------|
B||------------------------------------------------------------------------------|

Guitar 1 
E||--7-------10---9---7---10---10---9---|
B||----8---8----8---8---8----8----8---8-|
G||------7------------------------------|
D||-------------------------------------|
A||-------------------------------------|
E||-------------------------------------|
B||-------------------------------------|
|
|Guitar 3
E||---------------------------------|
B||-8-------------------------------|
G||---------------------------------|
D||-5-------------------------------|
A||---------------------------------|
E||---------------------------------|
B||---------------------------------|

Guitar 1 
E||--10----------14----12----10----------14----12----|
B||-----12----12----12----12----12----12----12----12-|
G||--------11----------------------11----------------|
D||--------------------------------------------------|
A||--------------------------------------------------|
E||--------------------------------------------------|
B||--------------------------------------------------|
|
|Guitar 3
E||---------------------------------|
B||-12------------------------------|
G||---------------------------------|
D||--9------------------------------|
A||---------------------------------|
E||---------------------------------|
B||---------------------------------|

Guitar 1 
E||--14----------17----16----14----------17----16----|
B||-----15----15----15----15----15----15----15----15-|
G||--------14----------------------14----------------|
D||--------------------------------------------------|
A||--------------------------------------------------|
E||--------------------------------------------------|
B||--------------------------------------------------|
|
|Guitar 3
E||---------------------------------|
B||-7-------------------------------|
G||---------------------------------|
D||-4-------------------------------|
A||---------------------------------|
E||---------------------------------|
B||---------------------------------|

Guitar 1 
E||---17-15-14----------19-17-15----------19--17--19--21--19--21-21BU(22)|
B||------------17-15-14----------19-17-15--------------------------------|
G||----------------------------------------------------------------------|
D||----------------------------------------------------------------------|
A||----------------------------------------------------------------------|
E||----------------------------------------------------------------------|
B||----------------------------------------------------------------------|
|
|Guitar 3
E||------------------------------------|
B||-8-------10-------12-------14-------|
G||------------------------------------|
D||-5--------7-------10-------11-------|
A||------------------------------------|
E||------------------------------------|
B||------------------------------------|

Solo 2 (MKH)
Guitar 2 
E||-15-14-12----------------------------------------------------------|
B||----------15-14-12-------------------------------------------------|
G||-------------------14-12-11----------------------------------------|
D||----------------------------14-12-11-------------------------------|
A||-------------------------------------14-12-10------------------12~-|
E||----------------------------------------------14-12-10--9~-/10-----|
B||-------------------------------------------------------------------|

Guitar 2 
E||-----------------------------------|
B||-----------------------------------|
G||-----------------------------------|
D||-----------11BU(12)(11)--9--11--12-|
A||-----------------------------------|
E||--/9--10---------------------------|
B||-----------------------------------|
|
|Guitar 3 
E||-----------------------------------|
B||-----------------------------------|
G||-----------9BU(11)(9)---7---9---11-|
D||-----------------------------------|
A||--/7--9----------------------------|
E||-----------------------------------|
B||-----------------------------------|

Guitar 2 
E||--10p7---7-------------------------------------------|
B||-----------------------------------------------------|
G||-------9---9p7-9p7---7-------------------------------|
D||-------------------------------------------------7h9-|
A||-------------------9---9p7-9p7p5h7--------7-9-10-----|
E||-----------------------------------7-9-10------------|
B||-----------------------------------------------------|
|
|Guitar 3
E||--14p10----10------------------------------------------------------------|
B||-------------------------------------------------------------------------|
G||--------12----12p11-12p11----11------------------------------------------|
D||-------------------------------------------------------------------11h12-|
A||--------------------------12----12p10-12p10p9h10----------10-12-14-------|
E||-------------------------------------------------10-12-14----------------|
B||-------------------------------------------------------------------------|


Guitar 2
E||----------10----------------10-12-13-|
B||-10-11-12----12-11-10-11-12----------|
G||-------------------------------------|
D||-------------------------------------| x2
A||-------------------------------------|
E||-------------------------------------|
B||-------------------------------------|
|
|Guitar 3
E||-------------------------------------|
B||-------------------------------------|
G||-------------------------------------|
D||----------12----------------12-14-15-| x2
A||-12-13-14----14-13-12-13-14----------|
E||-------------------------------------|
B||-------------------------------------|

Guitar 2 
E||----------14----------------19-------|     |-17BU(19)~~---|
B||-15-17-18----18-17-15-17-18----18-17-|     |--------------|
G||-------------------------------------|     |--------------|
D||-------------------------------------| x2  |--------------|
A||-------------------------------------|     |--------------|
E||-------------------------------------|     |--------------|
B||-------------------------------------|     |--------------|
|
|Guitar 3 
E||-------------------------------------|     |--------------|
B||-------------------------------------|     |--------------|
G||----------11----------------16-------|     |-14BU(16)~~---|
D||-12-14-15----15-14-12-14-15----15-14-| x2  |--------------|
A||-------------------------------------|     |--------------|
E||-------------------------------------|     |--------------|
B||-------------------------------------|     |--------------|

solo rhythm (plays throughout solo)
     PM------ ----------- ------- --------- --------- -------
E||------------------------------------------------------------|
B||------------------------------------------------------------|
G||------------------------------------------------------------|
D||------------------------------------------------------------|
A||------------------------------------------------------------|
E||----------7-----------7-------7---------7---------7-------7-|
B||--8-8-8-8-8-8-8-8-8-8-8-8-8-8-8-5-5-5-5-5-5-5-5-5-5-5-5-5-5-|

     PM------ ----------- ------- --------- --------- -------
E||------------------------------------------------------------|
B||------------------------------------------------------------|
G||------------------------------------------------------------|
D||------------------------------------------------------------|
A||------------------------------------------------------------|
E||----------2-----------2-------2---------2---------2-------2-|
B||--0-0-0-0-0-0-0-0-0-0-0-0-0-0-0-3-3-3-3-3-3-3-3-3-3-3-3-3-3-|

outro 
both guitars
E||---------------------------|
B||---------------------------|
G||---------------------------|
D||---------------------------|
A||---9~~---9~~---9~~-----9~~~| hold last chord
E||---7~~---7~~---6~~-----7~~~| till end
B||---8~~---5~~---0-------0---|

song in order:
intro
verse 1
verse 2
verse 3 X2
verse 4
verse 2
verse 3 X2
verse 4
Pre-chorus
chorus
Bridge
Breakdown 
solo 1/ guitar 1(CKB)
solo 2/ guitar 2(MKH)
Breakdown
chorus
verse 1
outro

            
            
Suggest correction
Creating personal tab
Creating personal tab
You can edit any tab online and save it as your Personal.

You can edit, replace or remove any tab part or add personal notes – all changes will be seen only by you.

Personal tabs can be accessed anytime from any device, even offline.
Learn more »
comments
print report bad tab
11 comments total. Showing first comments.
0 reply
kse19852009 124 Nov 25, 2009 10:53 AM

I dont have a 7 string guitar but it looks really good all the notes are there I cant see it not sounding right.

0 reply
kse19852009 124 Nov 25, 2009 11:01 AM

It sounds good but i cant give a realy good opinion cuz i could only play without the B string

0 reply
slipknot836 1,849 Nov 26, 2009 09:15 AM

you could probably b tune your guitar then everything on the high E stirng, you could move up a few frets to sound right if that helps mate. thanks for the rating :)

guest
You may want to rate the tab now too:
select rating
Wanna post a correction for this tab? Suggest correction