Oops, an error
Loading. Please wait.

Torn Between Scylla And Charybdis tab

version 1
version 1

Whole song

by Trivium
65,069 views 27 this week
15 commentsread comments
1 2 3 4 5
x 16
add to favorites
×
Save as Personal and add changes to this tab that will be seen only by you. Learn more ›
×
You can save this tab as Personal to edit and correct it or add notes. All changes will be seen only by you. Learn more »
launch autoscroll
font size
0
reset
how to read this tab
guitar tuner
backing track
0:00
0:00
edit
Autoscroll
slow
fast
+/-
esc
set tempo
stop
Author
                        TORN BETWEEN SCYLLA AND CHARYBDIS
                             As recorded by Trivium
                          (From the 2008 Album SHOGUN)

Music by Trivium
Transcribed by Luke Slater (Lukige)
Made some corrections after seeing the Shogun bonus DVD
Enjoy! And please rate/comment!

Gtr I (B E A D G B E) - 'Matt Heafy'
Gtr II (B E A D G B E) - 'Corey Beaulieu'
Gtr III (B E A D G B E) - 'Harmony Guitar'
Gtr IV (B E A D G B E) - 'Additional Harmony'

 Intro
  Q=142
 4/4
  Gtr II                                          \
|----------------------------------------------|
|-12-0-0-12-0-0-12-0-0-12-0-0-12-0-12-0--------|
|----------------------------------------------|
|----------------------------------------------|   
|----------------------------------------------|
|----------------------------------------------|
|----------------------------------------------|
					     
					     
|----------------------------------------|
|-15-0-0-15-0-0-15-0-14-0-0-14-0-0-14-0--|
|----------------------------------------|
|----------------------------------------|
|----------------------------------------|
|----------------------------------------|
|----------------------------------------| This plays throughout the intro


|---------------------------------------|
|-10-0-0-10-0-0-10-0-0-10-0-0-10-0-10-0-|
|---------------------------------------|
|---------------------------------------|
|---------------------------------------|
|---------------------------------------|
|---------------------------------------|


|---------------------------------------------|
|-15-0-0-15-0-0-15-0-14-0-0-14-0-0-14-0-------|
|---------------------------------------------|
|---------------------------------------------|
|---------------------------------------------|
|---------------------------------------------|
|---------------------------------------------|  /

After 2 repeats of Gtr 2, Gtr I and Gtr III come in with this

Gtr I

|------------------------------------------|
|------------------------------------------|
|------------------------------------------|
|------------------------------------------|
|------------------------------------------|
|------------------------------------------|
|------------------------------/10\--------|


Gtr III
||----------------------------------------|
||--15-0-0-15-0-0-15-0-0-15-0-0-15-0-15-0-|
||----------------------------------------|
||----------------------------------------|
||----------------------------------------|
||----------------------------------------|
||----------------------------------------|


Gtr I
||----------------------------------------|
||----------------------------------------|
||----------------------------------------|
||----------------------------------------|
||----------------------------------------|
||----------------------------------------|
||---0---------------------------0----2---|


Gtr III
|----------------------------------------|
|-19-0-0-19-0-0-19-0-17-0-0-17-0-0-17-0--|
|----------------------------------------|
|----------------------------------------|
|----------------------------------------|
|----------------------------------------|
|----------------------------------------|
|
|  ~~
|----------------------------------------|
|----------------------------------------|
|----------------------------------------|
|----------------------------------------|
|----------------------------------------|
|----------------0--------2---------5----|
|--3-------------------------------------|

|---------------------------------------|
|-14-0-0-14-0-0-14-0-0-14-0-0-14-0-14-0-|
|---------------------------------------|
|---------------------------------------|
|---------------------------------------|
|---------------------------------------|
|---------------------------------------|
|
|  ~~
|---------------------------------------|
|---------------------------------------|
|---------------------------------------|
|---------------------------------------|
|---------------------------------------|
|--3------------------------------------|
|---------------------------------------|

|----------------------------------------||
|-19-0-0-19-0-0-19-0-17-0-0-17-0-0-17-0--||
|----------------------------------------||
|----------------------------------------||
|----------------------------------------||
|----------------------------------------||
|----------------------------------------||
|
|----------------------------------------||
|----------------------------------------||
|----------------------------------------||
|-/4-------------2--------4---------0----||
|-/5-------------4--------5---------0----|| 2 Guitars play this harmony
|----------------------------------------||
|----------------------------------------||


Guitars II and III then continue to play the same part as

Guitar IV* enters and Guitar I changes rhythm
*This part was recorded with a human capo on the 12th fret (someone standing and 
down on the fret) but sounds just as good with open b anyway
||--------------------------------------------------|
||--24-12-12-24-12-12-24-12-12-24-12-12-24-12-24-12-|
||o-------------------------------------------------|
||--------------------------------------------------|
||o-------------------------------------------------|
||--------------------------------------------------|
||--------------------------------------------------|
|
||----------------------------------------|
||----------------------------------------|
||o---------------------------------------|
||----------------------------------------|
||o---------------------------------------|
||----------------------------------------|
||---0-0-0--0------0-0-0--0------0-0--2-2-|

|--------------------------------------------------|
|-19-12-12-19-12-12-19-12-22-12-12-22-12-12-22-12--|
|--------------------------------------------------|
|--------------------------------------------------|
|--------------------------------------------------|
|--------------------------------------------------|
|--------------------------------------------------|
|
|----------------------------------------|
|----------------------------------------|
|----------------------------------------|
|----------------------------------------|
|----------------------------------------|
|----------------0-0--0-0-2--2-2-2--5-5--|
|--3-3-3--3------------------------------|

|-------------------------------------------------|
|-17-12-12-17-12-12-17-12-12-17-12-12-17-12-17-12-|
|-------------------------------------------------|
|-------------------------------------------------|
|-------------------------------------------------|
|-------------------------------------------------|
|-------------------------------------------------|
|
|---------------------------------------|
|---------------------------------------|
|---------------------------------------|
|---------------------------------------|
|---------------------------------------|
|--3-3-3--3------3-3-3--3------3-3--3-3-|
|---------------------------------------|

|
|--------------------------------------------------||
|-24-12-12-24-12-12-24-12-22-12-12-22-12-12-22-12--||
|-------------------------------------------------o||
|--------------------------------------------------||
|-------------------------------------------------o||	X2
|--------------------------------------------------||
|--------------------------------------------------||
|
|----------------------------------------||
|----------------------------------------||
|---------------------------------------o||
|-/4-------------2--------4---------0----||
|-/5-------------4--------5---------0---o||
|----------------------------------------||
|----------------------------------------||


|-----------|----------------|
|-15--------|-(15)-----------|
|-----------|----------------|
|-----------|----------------|
|-----------|----------------|
|-----------|----------------|
|-----------|----------------|

|-----------|----------------|
|-12--------|-(12)-----------|
|-----------|----------------|
|-----------|----------------|
|-----------|----------------|
|-----------|----------------|
|-----------|----------------|
|
|-----------|----------------|
|-24--------|-(24)-----------|
|-----------|----------------|
|-----------|----------------|
|-----------|----------------|
|-----------|----------------|
|-----------|----------------|
|
|-----------|----------------|
|-----------|----------------|
|-----------|----------------|
|-----------|----------------|
|-----------|----------------|
|-----------|-----------12\--|
|--0--------|--(0)-----------|

 Pre-Verse
    Q.=70
   6/8
    Gtrs I, II
    PM----|       PM----|           PM----------------------------|   PM|    PM|   PM
||--------------------------------|-------------------------------|
||--------------------------------|-------------------------------|
||o-------------------------------|-------------------------------|
||--------------------------------|---------7---------------------|
||o-------------------------------|---------------10-----9---10---|
||----------9p7h9---------10p7h10-|-------------------------------|
||--0-0-0-0-------0-0-0-0---------|-5-5-5-5---5-5----5-5---5------|


  PM----|   PM|   PM|
                                                        4x
|------------------------|------------------------------||
|------------------------|------------------------------||
|------------------------|-----------------------------o||
|---------------------9\-|----------0h=4----------0h=2--||
|---------9-----7--------|------0h2-----------0h1------o||
|-6-6-6-6---6-6---6-6----|------------------------------||
|------------------------|-0h=3----------0h=2-----------||
|
| Gtr II
| PM----|   PM|   PM|
|                                                       4x
|------------------------|------------------------------||
|------------------------|------------------------------||
|------------------------|-----------------------------o||
|---------------------9\-|----------0h12----------0h11--||
|---------9-----7--------|------0h9-----------0h9------o||
|-6-6-6-6---6-6---6-6----|------------------------------||
|------------------------|-0h12----------0h11-----------||

 Pre-Verse
    Q.=70
   6/8
    Gtrs I, II
    PM----|       PM----|           PM----------------------------|   PM|    PM|   PM
||--------------------------------|-------------------------------|
||--------------------------------|-------------------------------|
||o-------------------------------|-------------------------------|
||--------------------------------|---------7---------------------|
||o-------------------------------|---------------10-----9---10---|
||----------9p7h9---------10p7h10-|-------------------------------|
||--0-0-0-0-------0-0-0-0---------|-5-5-5-5---5-5----5-5---5------|


  PM----|   PM|   PM|
                                                        4x
|------------------------|------------------------------||
|------------------------|------------------------------||
|------------------------|-----------------------------o||
|---------------------9\-|----------0h=4----------0h=2--||
|---------9-----7--------|------0h2-----------0h1------o||
|-6-6-6-6---6-6---6-6----|------------------------------||
|------------------------|-0h=3----------0h=2-----------||
|
| Gtr II
| PM----|   PM|   PM|
|                                                       4x
|------------------------|------------------------------||
|------------------------|------------------------------||
|------------------------|-----------------------------o||
|---------------------9\-|----------0h12----------0h11--||
|---------9-----7--------|------0h9-----------0h9------o||
|-6-6-6-6---6-6---6-6----|------------------------------||
|------------------------|-0h12----------0h11-----------||


 Verse
  Gtrs I, II
     PM----|   PM|   PM       PM--------------------|
|------------------------|--------------------------|
|------------------------|--------------------------|
|------------------------|--------------------------|
|------------------------|--------------------------|
|-9\---------5-----5---9-|-9\-----------------------|
|-7\---------2-----3---6-|-7\---------7-7-7S9-9-9---|
|----0-0-0-0---0-0---0---|----0-0-0-0-3-3-3S6-6-6---|


  Gtr I
     PM----|   PM|   PM
|------------------------|-------------------------------||
|------------------------|-------------------------------||
|------------------------|-------------------------------||
|------------------------|----------0h=4-5--4--2---------||
|-9\---------5-----5---9-|------0h2--------------5--4--2-||
|-7\---------2-----3---6-|-------------------------------||
|----0-0-0-0---0-0---0---|-0h=3--------------------------||
|
| Gtr II
|    PM----|   PM|   PM
|------------------------|-------------------------------||
|------------------------|-------------------------------||
|------------------------|---------------9---------------||
|------------------------|----------0h12---12-11-9-------||
|-9\---------5-----5---9-|------0h9----------------12-10-||
|-7\---------2-----3---6-|-------------------------------||
|----0-0-0-0---0-0---0---|-0h12--------------------------||


  Gtrs I, II
     PM----|   PM|   PM       PM--------------------|
|------------------------|--------------------------|
|------------------------|--------------------------|
|------------------------|--------------------------|
|------------------------|--------------------------|
|-9\---------5-----5---9-|-9\-----------------------|
|-7\---------2-----3---6-|-7\---------7-7-7S9-9-9---|
|----0-0-0-0---0-0---0---|----0-0-0-0-3-3-3S7-7-7---|


  Gtr I
     PM----|   PM|   PM
|------------------------|-------------------------------|
|------------------------|-------------------------------|
|------------------------|-------------------------------|
|------------------------|----------0h=4-5--4--2---------|
|-9\---------5-----5---9-|------0h2--------------5--4--2-|
|-7\---------2-----3---6-|-------------------------------|
|----0-0-0-0---0-0---0---|-0h=3--------------------------|
|
| Gtr II
|    PM----|   PM|   PM
|------------------------|-------------------------------|
|------------------------|-------------------------------|
|------------------------|---------------9---------------|
|------------------------|----------0h12---12-11-9-------|
|-9\---------5-----5---9-|------0h9----------------12-10-|
|-7\---------2-----3---6-|-------------------------------|
|----0-0-0-0---0-0---0---|-0h12--------------------------|


|------------------------------|
|------------------------------|
|------------------------------|
|----------0h2--4--2-0---------|
|------0h1--------------4--2-1-|
|------------------------------|
|-0h=2-------------------------|
|
|------------------------------|
|------------------------------|
|------------------------------|
|----------0h9-12-11-9---------|
|------0h9-------------13-10-9-|
|------------------------------|
|-0h11-------------------------|


 Pre-Chorus
    PM|   PM|   PM|   PM|     PM|   PM|   PM  PM  PM
|-------------------------|-------------------------|
|-------------------------|-------------7---8---7---|
|-4-----4-----6-----6-----|-7-----7-----------------|
|---4-4---4-4---4-4---4-4-|---4-4---4-4---4---4---4-|
|-------------------------|-------------------------|
|-------------------------|-------------------------|
|-------------------------|-------------------------|
|
|-------------------------|-------------------------|
|-------------------------|-------------------------|
|-------------------------|-------------------------|
|-9-9-9-9-----7-7-7-7-----|-5-5-5-5-----4-4-4-4-----|
|-9-9-9-9-----7-7-7-7-----|-5-5-5-5-----4-4-4-4-----|
|-7-7-7-7-----5-5-5-5-----|-3-3-3-3-----2-2-2-2-----|
|-------------------------|-------------------------|


    PM|   PM|   PM|   PM|
|-------------------------|-------------------------|
|-------------------------|-------------------------|
|-4-----4-----6-----6-----|-7p6---4-----7p6---4-----|
|---4-4---4-4---4-4---4-4-|-----7---7-5-----7---7-4-|
|-------------------------|-------------------------|
|-------------------------|-------------------------|
|-------------------------|-------------------------|
|
|-------------------------|-------------------------|
|-------------------------|-------------------------|
|-------------------------|-------------------------|
|-2-2-2-2-----4-4-4-4-----|-5-5-5-5-----7-7-7-7-----|
|-2-2-2-2-----4-4-4-4-----|-5-5-5-5-----7-7-7-7-----|
|-0-0-0-0-----2-2-2-2-----|-3-3-3-3-----5-5-5-5-----|
|-------------------------|-------------------------|


  Gtr I
    PM|   PM|   PM|   PM|     PM|   PM|    PM  PM   PM
|-------------------------|---------------------------|
|-------------------------|--------------7---8----7---|
|-4-----4-----6-----6-----|-7-----7-------------------|
|---4-4---4-4---4-4---4-4-|---4-4---4-4----4---4----4-|
|-------------------------|---------------------------|
|-------------------------|---------------------------|
|-------------------------|---------------------------|
|
| Gtr III
|   PM|   PM|   PM|   PM|     PM|   PM|    PM  PM   PM
|-------------------------|---------------------------|
|-------------5-----5-----|-7-----7-----10---8---10---|
|-7-----7-----------------|---------------------------|
|---4-4---4-4---4-4---4-4-|---4-4---4-4----4---4----4-|
|-------------------------|---------------------------|
|-------------------------|---------------------------|
|-------------------------|---------------------------|
|
| Gtr II
|-------------------------|---------------------------|
|-------------------------|---------------------------|
|-------------------------|---------------------------|
|-9-9-9-9-----7-7-7-7-----|-5-5-5-5------4-4-4-4------|
|-9-9-9-9-----7-7-7-7-----|-5-5-5-5------4-4-4-4------|
|-7-7-7-7-----5-5-5-5-----|-3-3-3-3------2-2-2-2------|
|-------------------------|---------------------------|


    PM|   PM|   PM|   PM|
|-------------------------|----------------------------|
|-------------------------|----------------------------|
|-4-----4-----6-----6-----|-7p6---4------7p6----4------|
|---4-4---4-4---4-4---4-4-|-----7---7-5-------7----7-4-|
|-------------------------|----------------------------|
|-------------------------|----------------------------|
|-------------------------|----------------------------|
|
|   PM|   PM|   PM|   PM|
|-------------------------|-------------10p9----7------|
|-------------5-----5-----|-7p5---5----------10---10-7-|
|-7-----7-----------------|-----7---7-6----------------|
|---4-4---4-4---4-4---4-4-|----------------------------|
|-------------------------|----------------------------|
|-------------------------|----------------------------|
|-------------------------|----------------------------|
|
|-------------------------|----------------------------|
|-------------------------|----------------------------|
|-------------------------|----------------------------|
|-2-2-2-2-----4-4-4-4-----|-5-5-5-5------7-7--7-7------|
|-2-2-2-2-----4-4-4-4-----|-5-5-5-5------7-7--7-7------|
|-0-0-0-0-----2-2-2-2-----|-3-3-3-3------5-5--5-5------|
|-------------------------|----------------------------|


   Chorus
    Q=142
   4/4
||--------------------|----------------------|
||--------------------|----------------------|
||o-------------------|----------------------|
||--------------------|-----7---5---4--------|
||o---------5-----5h7-|------------------7---|
||--5s7-7-7---7-------|----------------------|
||--------------------|----------------------|
|
||--------------------|-15s17--15--14---12---|
||--------------------|----------------------|
||o---------7-----7h9-|----------------------|
||--7s9-9-9---9-------|----------------------|
||o-------------------|----------------------|
||--------------------|----------------------|
||--------------------|----------------------|
|
|           PM------|               PM-----|
||--------------------|----------------------|
||--------------------|----------------------|
||o-------------------|----------------------|
||--------------------|----------------------|
||o-2-------2---2---2-|-----5-------5-5----5-|
||--2-------2---2---2-|-----5-------5-5----5-|
||--0-------0---0---0-|-----3-------3-3----3-|


|------------------------|----------------------||
|------------------------|----------------------||
|------------------------|---------------------o||
|-------------12------12-|-----------11-----11--||
|--9s10-10-10----10------|--9---9--9-----9-----o||
|------------------------|----------------------||
|------------------------|----------------------||
|
|------------------------|----------------------||
|-------------15------15-|-----------14-----14--||
|-11s12-12-12----12------|-11--11-11----11-----o||
|------------------------|----------------------||
|------------------------|---------------------o||
|------------------------|----------------------||
|------------------------|----------------------||
|
|              PM-----|
|------------------------|----------------------||
|------------------------|----------------------||
|------------------------|---------------------o||
|--5-----------5----5--5-|--4-------------------||
|--5-----------5----5--5-|--4------------------o||
|--3-----------3----3--3-|--2-------------------||
|------------------------|------------2---------||



   Pre-Verse
    Q.=70
   6/8
    Gtrs I, II
    PM----|       PM----|           PM----------------------------|   PM|    PM|   PM
||--------------------------------|-------------------------------|
||--------------------------------|-------------------------------|
||o-------------------------------|-------------------------------|
||--------------------------------|---------7---------------------|
||o-------------------------------|---------------10-----9---10---|
||----------9p7h9---------10p7h10-|-------------------------------|
||--0-0-0-0-------0-0-0-0---------|-5-5-5-5---5-5----5-5---5------|


  Gtr I
  PM----|   PM|   PM|
|------------------------|------------------------------||
|------------------------|------------------------------||
|------------------------|-----------------------------o||
|---------------------9\-|----------0h=4----------0h=2--||x4
|---------9-----7--------|------0h2-----------0h1------o||
|-6-6-6-6---6-6---6-6----|------------------------------||
|------------------------|-0h=3----------0h=2-----------||
|
| Gtr II
| PM----|   PM|   PM|
|------------------------|------------------------------||
|------------------------|------------------------------||
|------------------------|-----------------------------o||
|---------------------9\-|----------0h12----------0h11--||x4
|---------9-----7--------|------0h9-----------0h9------o||
|-6-6-6-6---6-6---6-6----|------------------------------||
|------------------------|-0h12----------0h11-----------||

 Verse
  Gtrs I, II
     PM----|   PM|   PM       PM--------------------|
|------------------------|--------------------------|
|------------------------|--------------------------|
|------------------------|--------------------------|
|------------------------|--------------------------|
|-9\---------5-----5---9-|-9\-----------------------|
|-7\---------2-----3---6-|-7\---------7-7-7S9-9-9---|
|----0-0-0-0---0-0---0---|----0-0-0-0-3-3-3S6-6-6---|


  Gtr I
     PM----|   PM|   PM
|------------------------|-------------------------------||
|------------------------|-------------------------------||
|------------------------|-------------------------------||
|------------------------|----------0h=4-5--4--2---------||
|-9\---------5-----5---9-|------0h2--------------5--4--2-||
|-7\---------2-----3---6-|-------------------------------||
|----0-0-0-0---0-0---0---|-0h=3--------------------------||
|
| Gtr II
|    PM----|   PM|   PM
|------------------------|-------------------------------||
|------------------------|-------------------------------||
|------------------------|---------------9---------------||
|------------------------|----------0h12---12-11-9-------||
|-9\---------5-----5---9-|------0h9----------------12-10-||
|-7\---------2-----3---6-|-------------------------------||
|----0-0-0-0---0-0---0---|-0h12--------------------------||


  Gtrs I, II
     PM----|   PM|   PM       PM--------------------|
|------------------------|--------------------------|
|------------------------|--------------------------|
|------------------------|--------------------------|
|------------------------|--------------------------|
|-9\---------5-----5---9-|-9\-----------------------|
|-7\---------2-----3---6-|-7\---------7-7-7S9-9-9---|
|----0-0-0-0---0-0---0---|----0-0-0-0-3-3-3S7-7-7---|


  Gtr I
     PM----|   PM|   PM
|------------------------|-------------------------------|
|------------------------|-------------------------------|
|------------------------|-------------------------------|
|------------------------|----------0h=4-5--4--2---------|
|-9\---------5-----5---9-|------0h2--------------5--4--2-|
|-7\---------2-----3---6-|-------------------------------|
|----0-0-0-0---0-0---0---|-0h=3--------------------------|
|
| Gtr II
|    PM----|   PM|   PM
|------------------------|-------------------------------|
|------------------------|-------------------------------|
|------------------------|---------------9---------------|
|------------------------|----------0h12---12-11-9-------|
|-9\---------5-----5---9-|------0h9----------------12-10-|
|-7\---------2-----3---6-|-------------------------------|
|----0-0-0-0---0-0---0---|-0h12--------------------------|


|------------------------------|
|------------------------------|
|------------------------------|
|----------0h2--4--2-0---------|
|------0h1--------------4--2-1-|
|------------------------------|
|-0h=2-------------------------|
|
|------------------------------|
|------------------------------|
|------------------------------|
|----------0h9-12-11-9---------|
|------0h9-------------13-10-9-|
|------------------------------|
|-0h11-------------------------|


 Pre-Chorus
  Gtr II
    PM|   PM|   PM|   PM|     PM|   PM|   PM  PM  PM
|-------------------------|-------------------------|
|-------------------------|-------------7---8---7---|
|-4-----4-----6-----6-----|-7-----7-----------------|
|---4-4---4-4---4-4---4-4-|---4-4---4-4---4---4---4-|
|-------------------------|-------------------------|
|-------------------------|-------------------------|
|-------------------------|-------------------------|
|
| Gtr III
|   PM|   PM|   PM|   PM|     PM|   PM|   PM  PM  PM
|-------------------------|-------------5-------5---|
|-------------5-----5-----|-7-----7---------8-------|
|-7-----7-----------------|-------------------------|
|---4-4---4-4---4-4---4-4-|---4-4---4-4---4---4---4-|
|-------------------------|-------------------------|
|-------------------------|-------------------------|
|-------------------------|-------------------------|
|
| Gtr I
|-------------------------|-------------------------|
|-------------------------|-------------------------|
|-------------------------|-------------------------|
|-9-9-9-9-----7-7-7-7-----|-5-5-5-5-----4-4-4-4-----|
|-9-9-9-9-----7-7-7-7-----|-5-5-5-5-----4-4-4-4-----|
|-7-7-7-7-----5-5-5-5-----|-3-3-3-3-----2-2-2-2-----|
|-------------------------|-------------------------|


    PM|   PM|   PM|   PM|
|-------------------------|----------------------------|
|-------------------------|----------------------------|
|-4-----4-----6-----6-----|-7p6---4------7p6----4------|
|---4-4---4-4---4-4---4-4-|-----7---7-5-------7----7-4-|
|-------------------------|----------------------------|
|-------------------------|----------------------------|
|-------------------------|----------------------------|
|
|   PM|   PM|   PM|   PM|
|-------------------------|-------------10p9----7------|
|-------------5-----5-----|-7p5---5----------10---10-7-|
|-7-----7-----------------|-----7---7-6----------------|
|---4-4---4-4---4-4---4-4-|----------------------------|
|-------------------------|----------------------------|
|-------------------------|----------------------------|
|-------------------------|----------------------------|
|
|-------------------------|----------------------------|
|-------------------------|----------------------------|
|-------------------------|----------------------------|
|-2-2-2-2-----4-4-4-4-----|-5-5-5-5------7-7--7-7------|
|-2-2-2-2-----4-4-4-4-----|-5-5-5-5------7-7--7-7------|
|-0-0-0-0-----2-2-2-2-----|-3-3-3-3------5-5--5-5------|
|-------------------------|----------------------------|


   Chorus
    Q=142
   4/4
||--------------------|----------------------|
||--------------------|----------------------|
||o-------------------|----------------------|
||--------------------|-----7---5---4--------|
||o---------5-----5h7-|------------------7---|
||--5s7-7-7---7-------|----------------------|
||--------------------|----------------------|
|
||--------------------|-15s17--15--14---12---|
||--------------------|----------------------|
||o---------7-----7h9-|----------------------|
||--7s9-9-9---9-------|----------------------|
||o-------------------|----------------------|
||--------------------|----------------------|
||--------------------|----------------------|
|
|           PM------|               PM-----|
||--------------------|----------------------|
||--------------------|----------------------|
||o-------------------|----------------------|
||--------------------|----------------------|
||o-2-------2---2---2-|-----5-------5-5----5-|
||--2-------2---2---2-|-----5-------5-5----5-|
||--0-------0---0---0-|-----3-------3-3----3-|


                                                4x
|------------------------|----------------------||
|------------------------|----------------------||
|------------------------|---------------------o||
|-------------12------12-|-----------11-----11--||
|--9s10-10-10----10------|--9---9--9-----9-----o||
|------------------------|----------------------||
|------------------------|----------------------||
|
|                                               4x
|------------------------|----------------------||
|-------------15------15-|-----------14-----14--||
|-11s12-12-12----12------|-11--11-11----11-----o||
|------------------------|----------------------||
|------------------------|---------------------o||
|------------------------|----------------------||
|------------------------|----------------------||
|
|              PM-----|
|                                               4x
|------------------------|----------------------||
|------------------------|----------------------||
|------------------------|---------------------o||
|--5-----------5----5--5-|--4-------------------||
|--5-----------5----5--5-|--4------------------o||
|--3-----------3----3--3-|--2-------------------||
|------------------------|------------2---------||


   Breakdown
   5/4
    Gtr II
      PM------------------------------------------------
||-----------------------------------------------------|
||-----------------------------------------------------|
||o----------------------------------------------------|
||-----------------------------------------------------|
||o----------------------------------------------------|
||---15---0-0-0-11-0-12-0-14-0-15-0-0-0-11-0-12-0-14-0-|
||-----------------------------------------------------|
|
||-----------------------------------------------------|
||-----------------------------------------------------|
||o----------------------------------------------------|
||--(11)\----------------------------------------------|
||o----------------------------------------------------|
||-----------------------------------------------------|
||-----------------------------------------------------|
|
||-----------------------------------------------------|
||--(14)\----------------------------------------------|
||o----------------------------------------------------|
||-----------------------------------------------------|
||o----------------------------------------------------|
||-----------------------------------------------------|
||-----------------------------------------------------|


 -----------------------------------------------|
|--------------------------------------------------|
|--------------------------------------------------|
|--------------------------------------------------|
|--------------------------------------------------|
|--------------------------------------------------|
|-15-0-0-0-11-0-12-0-14-0-15-0-0-0-11-0-12-0-14-0--|
|--------------------------------------------------|
|
|--------------------------------------------------|
|--------------------------------------------------|
|--------------------------------------------------|
|--------------------------------------------------|
|--------------------------------------------------|
|--------------------------------------------------|
|--------------------------------------------------|
|
|--------------------------------------------------|
|--------------------------------------------------|
|--------------------------------------------------|
|--------------------------------------------------|
|--------------------------------------------------|
|--------------------------------------------------|
|--------------------------------------------------|


  Gtrs I, II
|-------------------------------------------------|
|-------------------------------------------------|
|-------------------------------------------------|
|-------------------------------------------------|
|-------------------------------------------------|
|-------------------------------------------------|
|-15-0-0-11-0-0-12-0-14-0-15-0-0-11-0-0-12-0-14-0-|


|--------------------------------------------------||
|--------------------------------------------------||
|-------------------------------------------------o||
|--------------------------------------------------||
|-------------------------------------------------o||
|--------------------------------------------------||
|-15-0-0-11-0-0-12-0-14-0-15-0-0-11-0-0-12-0-14-0--||


     PM----------------------------------------------
||--------------------------------------------------|
||--------------------------------------------------|
||o-------------------------------------------------|
||--------------------------------------------------|
||o-------------------------------------------------|
||--15-0-0-0-11-0-12-0-14-0-15-0-0-0-11-0-12-0-14-0-|
||--------------------------------------------------|


 -----------------------------------------------|
|------------------------------------------------|
|------------------------------------------------|
|------------------------------------------------|
|------------------------------------------------|
|------------------------------------------------|
|-15-0-0-0-11-0-12-0-14-0-15-0-0-0-11-0-12-0-14-0|
|------------------------------------------------|


|-------------------------------------------------|
|-------------------------------------------------|
|-------------------------------------------------|
|-------------------------------------------------|
|-------------------------------------------------|
|-------------------------------------------------|
|-15-0-0-11-0-0-12-0-14-0-15-0-0-11-0-0-12-0-14-0-|


  1.
|--------------------------------------------------||
|--------------------------------------------------||
|-------------------------------------------------o||
|--------------------------------------------------||
|-------------------------------------------------o||
|--------------------------------------------------||
|-15-0-0-11-0-0-12-0-14-0-15-0-0-11-0-0-12-0-14-0--||


  2.
 4/4
        ~~     ~
|-----------------||
|-----------------||
|-----------------||
|-----------------||
|-----------------||
|-----------------||
|-/12--11--/8--7--||
|
| Gtr II
|       ~~     ~
|-----------------||
|-----------------||
|-----------------||
|-----------------||
|-----------------||
|-/10---9--/7--6--||
|-----------------||


 Solo
|-14p10------------10-14p10----------10-12p9------------9-12p9----------9--|
|-------12----12------------12----12-----------11----11--------11----11----|
|----------11------------------11-----------------12--------------12-------|
|--------------------------------------------------------------------------|
|--------------------------------------------------------------------------|
|--------------------------------------------------------------------------|
|--------------------------------------------------------------------------|
|
|--------------------------------------------------------------------------|
|--------------------------------------------------------------------------|
|--------------------------------------------------------------------------|
|--------------------------------------------------------------------------|
|--------------------------------------------------------------------------|
|-----------7p===6h====7-----------------9p==7h====9--------------10-------|
|--0----------------------------0--------------------------0---------------|


|-14p10------------10-14p10----------10-15p12-------------12-15p12-------------15--|
|-------12----12------------12----12-------------14----14----------14----17--------|
|----------11------------------11-------------------15----------------15-----------|
|----------------------------------------------------------------------------------|
|----------------------------------------------------------------------------------|
|----------------------------------------------------------------------------------|
|----------------------------------------------------------------------------------|
|
|----------------------------------------------------------------------------------|
|----------------------------------------------------------------------------------|
|----------------------------------------------------------------------------------|
|----------------------------------------------------------------------------------|
|----------------------------------------------------------------------------------|
|----------10p===9h===10----------------12p===10h===12----------------14h===15-----|
|--0----------------------------0-----------------------------0--------------------|


|-18p15----------9-12p9----------12-15p12---------6-9p6--------9-|
|-------17----11--------11----14----------14----8-------8---11---|
|----------18--------------12----------------15-----------9------|
|----------------------------------------------------------------|
|----------------------------------------------------------------|
|----------------------------------------------------------------|
|----------------------------------------------------------------|
|
|----------------------------------------------------------------|
|----------------------------------------------------------------|
|----------------------------------------------------------------|
|----------------------------------------------------------------|
|----------------------------------------------------------------|
|-14---------------12---------------10--------------9------------|
|-----------0---------------0-----------------0-----------0------|


                         \2
|-12p9---------3--6p3-------------------|
|------11----5--------5-----------------|
|---------12------------<3>------(<3>)--|
|---------------------------------------|
|---------------------------------------|
|---------------------------------------|
|---------------------------------------|
|
|                                  ~~~~~
|---------------------------------------|
|---------------------------------------|
|---------------------------------------|
|---------------------------------------|
|---------------------------------------|
|-14-------------12---------10-----6----|
|----------0-------------0-----0--------|


    Gtr II
                         ~~                             ~~ PM|
|-----------------------------|---------------------------------|
|-----------------------------|----------------------7-----0--0-|
|----------------6----7--6----|----/7----6--7--9--------9-------|
|----/9----8--9---------------|---------------------------------|
|-----------------------------|---------------------------------|
|-----------------------------|---------------------------------|
|-----------------------------|---------------------------------|
|
| Gtr III
|                        ~~                             ~~
|-----------------------------|---------------------------------|
|-----------------------------|---------------------------------|
|--------------------11-------|---/11------11-12----14-12-------|
|---/12---11-12-14------14----|---------14----------------------|
|-----------------------------|---------------------------------|
|-----------------------------|---------------------------------|
|-----------------------------|---------------------------------|
|
| Gtr I
|-----------------------------|---------------------------------|
|-----------------------------|---------------------------------|
|-----------------------------|---------------------------------|
|-----------------------------|---------------------------------|
|-----------------------------|---------------------------------|
|-----7p6h=7-----9p7h=9----10-|----10p9h10----12p10h12----14h15-|
|-0-----------0----------0----|-0-----------0-----------0-------|


    PM------------------------------------|
|-------------------------------------------|
|--12--0-11-0-14-0-12-0-15-0-14-0-17-0-15-0-|
|-------------------------------------------|
|-------------------------------------------|
|-------------------------------------------|
|-------------------------------------------|
|-------------------------------------------|
|
|   ~~~~
|-------------------------------------------|
|-------------------------------------------|
|-(12)--------------------------------------|
|-------------------------------------------|
|-------------------------------------------|
|-------------------------------------------|
|-------------------------------------------|
|
|-------------------------------------------|
|-------------------------------------------|
|-------------------------------------------|
|-------------------------------------------|
|-------------------------------------------|
|--14---------12--------10---------9--------|
|---------0---------0---------0---------0---|


                                                               ~~
|-14-14-14-14-14-14-14-14-15-14-12--------------------------------|
|----------------------------------15-14-12-----------------------|
|-------------------------------------------14-12-11--------------|
|----------------------------------------------------14-12-11-----|
|-------------------------------------------------------------14--|
|-----------------------------------------------------------------|
|-----------------------------------------------------------------|
|
|-----------------------------------------------------------------|
|-----------------------------------------------------------------|
|-----------------------------------------------------------------|
|-----------------------------------------------------------------|
|-----------------------------------------------------------------|
|-----------------------------------------------------------------|
|-----------------------------------------------------------------|
|
|                                                              ~~
|-----------------------------------------------------------------|
|-----------------------------------------------------------------|
|-----------------------------------------------------------------|
|-----------------------------------------------------------------|
|-----------------------------------------------------------------|
|-14----------------------12----------------10-----------------6--|
|--------------0--------------------0-----------------0-----------|


|-15-12----------------12-15-12----------------11-|
|-------------------------------------------------|
|-------16-12----12-16----------16-12----12-16----|
|-------------14----------------------14----------|
|-------------------------------------------------|
|-------------------------------------------------|
|-------------------------------------------------|
|
|-19-15----------------15-19-15----------------14-|
|-------------------------------------------------|
|-------21-16----16-21----------21-16----16-21----|
|-------------17----------------------17----------|
|-------------------------------------------------|
|-------------------------------------------------|
|-------------------------------------------------|
|
|-------------------------------------------------|
|-------------------------------------------------|
|-------------------------------------------------|
|-------------------------------------------------|
|-------------------------------------------------|
|-------12p11h12----------14p12h14----------15----|
|--0-----------------0-----------------0----------|


|-14-11----------------11-14-11----------------11-|
|-------------------------------------------------|
|-------14-11----11-14----------14-11----11-14----|
|-------------13----------------------13----------|
|-------------------------------------------------|
|-------------------------------------------------|
|-------------------------------------------------|
|
|-17-14----------------14-17-14----------------14-|
|-------------------------------------------------|
|-------20-14----14-20----------20-14----14-20----|
|-------------16----------------------16----------|
|-------------------------------------------------|
|-------------------------------------------------|
|-------------------------------------------------|
|
|-------------------------------------------------|
|-------------------------------------------------|
|-------------------------------------------------|
|-------------------------------------------------|
|-------------------------------------------------|
|-------15p14h15----------17p15h17----------19h20-|
|--0-----------------0-----------------0----------|


   TP TP TP TP TP TP TP TP   TP TP TP TP TP TP TP~
|-------------------------|-------------11-14-12\--|
|----------------------13-|----------13------------|
|----11-14-------11-14----|----11-14---------------|
|-13-------10-13----------|-13---------------------|
|-------------------------|------------------------|
|-------------------------|------------------------|
|-------------------------|------------------------|
|
|                                              ~~~
|-------------------------|------------------------|
|-------------------------|------------------------|
|-------------------------|------------------------|
|-------------------------|------------------------|
|-------------------------|------------------------|
|-19----17----15----14----|-19----17----15----11---|
|-----0-----0-----0-----0-|-----0-----0-----0------|


  Gtr II
|------------------------------------------|
|----5--------5-------7--------(7)---------|
|----7b9------7b9r====9b11r====(9)b11------|
|------------------------------------------|
|------------------------------------------|
|------------------------------------------|
|------------------------------------------|
|
| Gtr III
|---12-------12------14-------(14)---------|
|---15b17----15b17r==17b19r===(17)b19------|
|------------------------------------------|
|------------------------------------------|
|------------------------------------------|
|------------------------------------------|
|------------------------------------------|
|
| Gtr I
|------------------------------------------|
|------------------------------------------|
|------------------------------------------|
|------------------------------------------|
|------------------------------------------|
|---12p===11h12------14p===12h=14-------15-|
|-0----------------0------------------0----|


|---------------------------------------------|
|----8--------8------10-------(10)------------|
|---10b12----10b12r==12b14r===(12)b14---------|
|---------------------------------------------|
|---------------------------------------------|
|---------------------------------------------|
|---------------------------------------------|
|
|---15-------15------17-------(17)------------|
|---18b20----18b20r==20b22r===(20)b22---------|
|---------------------------------------------|
|---------------------------------------------|
|---------------------------------------------|
|---------------------------------------------|
|---------------------------------------------|
|
|---------------------------------------------|
|---------------------------------------------|
|---------------------------------------------|
|---------------------------------------------|
|---------------------------------------------|
|---15p===14h15------17p===15h=17-------19h20-|
|-0----------------0------------------0-------|


|-14---------14---------17---------17---------|
|----12---------12----------------------------|
|---------11---------11----16---14----16---14-|
|---------------------------------------------|
|---------------------------------------------|
|---------------------------------------------|
|---------------------------------------------|
|
|---------------------------------------------|
|---------------------------------------------|
|---------------------------------------------|
|---------------------------------------------|
|---------------------------------------------|
|-19---------17---------15---------14---------|
|-------0----------0----------0----------0----|


|----------------------------14-15-17----------15-17-19----------17-19-20-|
|-------------------13-16-17----------16-17-19----------17-19-20----------|
|----------12-14-16-------------------------------------------------------|
|-13-14-16----------------------------------------------------------------|
|-------------------------------------------------------------------------|
|-------------------------------------------------------------------------|
|-------------------------------------------------------------------------|
|
|                                                        ~~
|-------------------------------------------------------------------------|
|-------------------------------------------------------------------------|
|-------------------------------------------------------------------------|
|-------------------------------------------------------------------------|
|-------------------------------------------------------------------------|
|-19----------------17----------------15----------------11----------------|
|-----------0-----------------0-----------------0-------------------------|


   Bridge
    Q.=70
   6/8
    Gtr III
     ~~~~~
||--22b24-----------------------|----------------------------------|
||------------------------------|----------------------------------|
||o-11--------------------------|-(11)---------------(11)----11S===|
||---x--------------------------|--(x)----------------(x)-----x----|
||o--9--------------------------|--(9)----------------(9)-----9S===|
||------------------------------|----------------------------------|
||------------------------------|----------------------------------|
|
|   Gtr I
|    PM-----|       PM--|           PM---|       PM------------------|
||------------------------------|------------------------------------|
||------------------------------|------------------------------------|
||o-----------------------------|------------------------------------|
||------------12-12-------12-12-|----------12-12----------12----12---|
||o------------9--9--------9--9-|-----------9--9-----------9-----9---|
||------------10-10-------10-10-|----------10-10----------10----10---|
||---0----0-0-------0-0-0-------|---0--0-0-------0-0---0-------------|
|
|   Gtr II
|    PM-----|       PM--|           PM---|       PM------------------|
||------------------------------|------------------------------------|
||------------------------------|------------------------------------|
||o------------7--7--------7--7-|-----------7--7-----------7-----7---|
||-------------x--x--------x--x-|-----------x--x-----------x-----x---|
||o------------5--5--------5--5-|-----------5--5-----------5-----5---|
||------------------------------|------------------------------------|
||---0----0-0-------0-0-0-------|---0--0-0-------0-0---0-------------|


|--------------------------|-------------------------------||
|--------------------------|-------------------------------||
|-10-----------------------|-(10)-------------------------o||
|--x-----------------------|--(x)--------------------------||
|--8-----------------------|--(8)-------------------------o|| x2
|--------------------------|-------------------------------||
|--------------------------|-------------------------------||
|
|  PM--|       PM--|
|--------------------------|-------------------------------||
|--------------------------|-------------------------------||x2
|--------------------------|------------------------------o||
|--------11-11-------11-11-|-------------------------------||
|---------8--8--------8--8-|------------------------------o||
|---------9--9--------9--9-|-------------------------------||
|--0-0-0-------0-0-0-------|---0--0-0-2-0-2-0-2-0-3-0-3----||
|
|  PM--|       PM--|
|--------------------------|-------------------------------||
|--------------------------|-------------------------------||
|---------6--6--------6--6-|------------------------------o||x2
|---------x--x--------x--x-|-------------------------------||
|---------4--4--------4--4-|------------------------------o||
|--------------------------|-------------------------------||
|--0-0-0-------0-0-0-------|-------------------------------||


   Bass Solo
     ~~
||-12-12-12-12-12-12-12-12-12-12-12-12-|-12-12-12-12-12-12-12-12-12-12-12-12---|
||-x--x--x--x--x--x--x--x--x--x--x--x--|-x--x--x--x--x--x--x--x--x--x--x--x----|
||-9--9--9--9--9--9--9--9--9--9--9--9--|-9--9--9--9--9--9--9--9--9--9--9--9----|
||-------------------------------------|---------------------------------------|
||-------------------------------------|---------------------------------------|
||-------------------------------------|---------------------------------------|
||-------------------------------------|---------------------------------------|

|
|    PM--|       PM--|           PM---|       PM------------------|
||---------------------------|------------------------------------|
||---------------------------|------------------------------------|
||---------------------------|------------------------------------|
||---------14-14-------14-14-|----------14-14----------14----14---|
||---------10-10-------10-10-|----------10-10----------10----10---|
||---------12-12-------12-12-|----------12-12----------12----12---|
||---0-0-0-------0-0-0-------|---0--0-0-------0-0---0-------------|
|
|    PM--|       PM--|           PM---|       PM------------------|
||---------------------------|------------------------------------|
||---------------------------|------------------------------------|
||----------9--9--------9--9-|-----------9--9-----------9-----9---|
||----------x--x--------x--x-|-----------x--x-----------x-----x---|
||----------7--7--------7--7-|-----------7--7-----------7-----7---|
||---------------------------|------------------------------------|
||---0-0-0-------0-0-0-------|---0--0-0-------0-0---0-------------|


|-11-11-11-11-11-11-11-11-11-11-11-11-|-7-7-7-7-7-7-11-11-11-11-11-11--||
|--x--x--x--x--x--x--x--x--x--x--x--x-|-x-x-x-x-x-x--x--x--x--x--x--x--||
|--8--8--8--8--8--8--8--8--8--8--8--8-|-4-4-4-4-4-4--8--8--8--8--8--8--||
|-------------------------------------|--------------------------------||x2
|-------------------------------------|--------------------------------||
|-------------------------------------|--------------------------------||
|-------------------------------------|--------------------------------||
|
|  PM---|            PM---|             PM--|        PM-------------------|
|-------------------------------------|-----------------------------------|
|-------------------------------------|-----------------------------------|
|-------------------------------------|-----------------------------------|
|----------13----13----------13----13-|-------9---9----------13----13-----|x2
|-----------9-----9-----------9-----9-|-------6---6-----------9-----9-----|
|----------11----11----------11----11-|-------7---7----------11----11-----|
|--0--0--0-----------0--0--0----------|-0-0-0--------0--0--0--------------|
|
|  PM---|            PM---|             PM--|        PM-------------------|
|-------------------------------------|-----------------------------------|
|-------------------------------------|-----------------------------------|
|-----------8-----8-----------8-----8-|-------4---4-----------8-----8-----|
|-----------x-----x-----------x-----x-|-------x---x-----------x-----x-----|
|-----------6-----6-----------6-----6-|-------2---2-----------6-----6-----|x2
|-------------------------------------|-----------------------------------|
|--0--0--0-----------0--0--0----------|-0-0-0--------0--0--0--------------|

   Pre-Solo
    Q=142
   4/4
||------------------------------------------------|
||------------------------------------------------|
||o-----------------------------------------------|
||------------------------------------------------|
||o---------------------------------7h9h10-7h9h10-|
||----7h9h10-7h9h10---7h9h10-7h9h10---------------|
||------------------------------------------------|
|
||------------------------------------------------|
||------------------------------------------------|
||o-----------------------------------------------|
||------------------------------------------------|
||o-----------------------------------------------|
||------------------------------------------------|
||--0---------------0-----------------------------|


 5/4
|--------------------------------------------------------------||
|--------------------------------------------------------------||
|-------------------------------------------------------------o||
|-----------------------------------------------8h9h11-8h9h11--||x2
|---------------------------------7h9h10-7h9h10---------------o||
|---7h9h10-7h9h10---7h9h10-7h9h10------------------------------||
|--------------------------------------------------------------||
|
|--------------------------------------------------------------||
|--------------------------------------------------------------||
|-------------------------------------------------------------o||
|--------------------------------------------------------------||
|-------------------------------------------------------------o||x2
|--------------------------------------------------------------||
|-0---------------0--------------------------------------------||


 Solo II
 4/4
  Gtr I
      PM       PM       PM    PM      PM       ~~~~~~~~~~~~~~~~
|-------------------------------|------------------------------------|
|-------------------------------|-12---------------------------------|
|----------------12-------11----|----------14------------------------|
|-14-------13-------------------|-------------13----------(13)-------|
|----10-------10-------10----10-|----10------------------------------|
|-------------------------------|------------------------------------|
|-------------------------------|------------------------------------|
|
| Gtr III
|     PM       PM       PM    PM      PM       ~~~~~~~~~~~~~~~~
|-------------------------------|-11---------------------------------|
|----------------12-------------|----------13------------------------|
|-12-------11-------------14----|-------------11----------(11)-------|
|-------------------------------|------------------------------------|
|----10-------10-------10----10-|----10------------------------------|
|-------------------------------|------------------------------------|
|-------------------------------|------------------------------------|
|
| Gtr II
|-------------------------------|------------------------------------|
|-------------------------------|------------------------------------|
|-------------------------------|------------------------------------|
|-------------------------------|------------------------------------|
|-------------------------------|------------------------------------|
|----12p11h12----14p12h14----15-|----15p14h15----17p15h17------19h20-|
|--0-----------0-----------0----|--0-----------0------------0--------|


|-------------------------------------------------------12-14-15-12-14-15-|
|-------------------------------------12-13-15-12-13-15-------------------|
|-------------------11-12-14-11-12-14-------------------------------------|
|-10-13-14-10-13-14-------------------------------------------------------|
|-------------------------------------------------------------------------|
|-------------------------------------------------------------------------|
|-------------------------------------------------------------------------|
|
|-------------------------------------------------------------------------|
|-------------------------------------------------------------------------|
|-------------------------------------------------------------------------|
|-------------------------------------------------------------------------|
|-------------------------------------------------------------------------|
|-19----------------17----------------15----------------14----------------|
|-----------0-----------------0-----------------0-----------------0-------|


                    \1/
             ~~~~~~~~~~~
|-/20----17-----------------|
|-----19----16----(16)------|
|---------------------------|
|---------------------------|
|---------------------------|
|---------------------------|
|---------------------------|
|
|                        ~~
|---------------------------|
|---------------------------|
|---------------------------|
|---------------------------|
|---------------------------|
|--19----17----15-------11--|
|------0-----0------0-------|


|----------------15-19p15----------------------------15-20p15-------------|
|-------------17----------17----------------------17----------17----------|
|----------16----------------16----------------17----------------17-------|
|-------17----------------------17----------17----------------------17----|
|-14h19----------------------------19-15h19----------------------------19-|
|-------------------------------------------------------------------------|
|-------------------------------------------------------------------------|
|
|-------------------------------------------------------------------------------|
|-------------------------------------------------------------------------------|
|-------------------------------------------------------------------------------|
|-------------------------------------------------------------------------------|
|-------------------------------------------------------------------------------|
|----------12p===11h===12----------------14p===12h===14----------------15-------|
|--0-----------------------------0-----------------------------0----------------|


|----------------15-19p15----------------------------14-19p14--------------|
|-------------17----------17----------------------16----------16-----------|
|----------16----------------16----------------16----------------16--------|
|-------17----------------------17----------16----------------------16-----|
|-14h19----------------------------19-14h18----------------------------18--|
|--------------------------------------------------------------------------|
|--------------------------------------------------------------------------|
|
|-----------------------------------------------------------------------------------|
|-----------------------------------------------------------------------------------|
|-----------------------------------------------------------------------------------|
|-----------------------------------------------------------------------------------|
|-----------------------------------------------------------------------------------|
|----------15p===14h===15----------------17p===15h===17----------------19h===20-----|
|--0-----------------------------0-----------------------------0--------------------|


|-------------------------------------------------------17-19-20-17-19-20-|
|-------------------------------------17-19-20-17-19-20-------------------|
|-------------------16-17-20-16-17-20-------------------------------------|
|-16-17-19-16-17-19-------------------------------------------------------|
|-------------------------------------------------------------------------|
|-------------------------------------------------------------------------|
|-------------------------------------------------------------------------|
|
|-------------------------------------------------------------------------|
|-------------------------------------------------------------------------|
|-------------------------------------------------------------------------|
|-------------------------------------------------------------------------|
|-------------------------------------------------------------------------|
|-19----------------17----------------15----------------14----------------|
|-----------0-----------------0-----------------0-----------------0-------|


            ~~~~~~~~~~
|-23-19-23-23-(23)b24-------|
|---------------------------|
|---------------------------|
|---------------------------|
|---------------------------|
|---------------------------|
|---------------------------|
|
|                        ~~
|---------------------------|
|---------------------------|
|---------------------------|
|---------------------------|
|---------------------------|
|-19----17-----15-------11--|
|-----0-----0---------0-----|


   Bridge
    Q.=70
   6/8
    Gtr III
     ~~
||---------------------------|----------------------------------|
||---------------------------|----------------------------------|
||o-11-----------------------|-(11)---------------(11)----11S===|
||---x-----------------------|--(x)----------------(x)-----x----|
||o--9-----------------------|--(9)----------------(9)-----9S===|
||---------------------------|----------------------------------|
||---------------------------|----------------------------------|
|
|   Gtr I
|    PM--|       PM--|           PM---|       PM------------------|
||---------------------------|------------------------------------|
||---------------------------|------------------------------------|
||o--------------------------|------------------------------------|
||---------12-12-------12-12-|----------12-12----------12----12---|
||o---------9--9--------9--9-|-----------9--9-----------9-----9---|
||---------10-10-------10-10-|----------10-10----------10----10---|
||---0-0-0-------0-0-0-------|---0--0-0-------0-0---0-------------|
|
|   Gtr II
|    PM--|       PM--|           PM---|       PM------------------|
||---------------------------|------------------------------------|
||---------------------------|------------------------------------|
||o---------7--7--------7--7-|-----------7--7-----------7-----7---|
||----------x--x--------x--x-|-----------x--x-----------x-----x---|
||o---------5--5--------5--5-|-----------5--5-----------5-----5---|
||---------------------------|------------------------------------|
||---0-0-0-------0-0-0-------|---0--0-0-------0-0---0-------------|


|--------------------------|-------------------------------||
|--------------------------|-------------------------------||
|-10-----------------------|-(10)-------------------------o||
|--x-----------------------|--(x)--------------------------||
|--8-----------------------|--(8)-------------------------o||x2
|--------------------------|-------------------------------||
|--------------------------|-------------------------------||
|
|  PM--|       PM--|
|--------------------------|-------------------------------||
|--------------------------|-------------------------------||
|--------------------------|------------------------------o||
|--------11-11-------11-11-|-------------------------------||
|---------8--8--------8--8-|------------------------------o||x2
|---------9--9--------9--9-|-------------------------------||
|--0-0-0-------0-0-0-------|---0--0-0-2-0-2-0-2-0-3-0-3----||
|
|  PM--|       PM--|
|--------------------------|-------------------------------||
|--------------------------|-------------------------------||
|---------6--6--------6--6-|------------------------------o||
|---------x--x--------x--x-|-------------------------------||
|---------4--4--------4--4-|------------------------------o||
|--------------------------|-------------------------------||x2
|--0-0-0-------0-0-0-------|-------------------------------||


   Bass Solo II
    ~~
||-12-12-12-12-12-12-12-12-12-12-12-12-|-12-12-12-12-12-12-12-12-12-12-12-12---|
||-x--x--x--x--x--x--x--x--x--x--x--x--|-x--x--x--x--x--x--x--x--x--x--x--x----|
||-9--9--9--9--9--9--9--9--9--9--9--9--|-9--9--9--9--9--9--9--9--9--9--9--9----|
||-------------------------------------|---------------------------------------|
||-------------------------------------|---------------------------------------|
||-------------------------------------|---------------------------------------|
||-------------------------------------|---------------------------------------|

|
|    PM--|       PM--|           PM---|       PM------------------|
||---------------------------|------------------------------------|
||---------------------------|------------------------------------|
||---------------------------|------------------------------------|
||---------14-14-------14-14-|----------14-14----------14----14---|
||---------10-10-------10-10-|----------10-10----------10----10---|
||---------12-12-------12-12-|----------12-12----------12----12---|
||---0-0-0-------0-0-0-------|---0--0-0-------0-0---0-------------|
|
|    PM--|       PM--|           PM---|       PM------------------|
||---------------------------|------------------------------------|
||---------------------------|------------------------------------|
||----------9--9--------9--9-|-----------9--9-----------9-----9---|
||----------x--x--------x--x-|-----------x--x-----------x-----x---|
||----------7--7--------7--7-|-----------7--7-----------7-----7---|
||---------------------------|------------------------------------|
||---0-0-0-------0-0-0-------|---0--0-0-------0-0---0-------------|


|-11-11-11-11-11-11-11-11-11-11-11-11-|-7-7-7-7-7-7-11-11-11-11-11-11--||
|--x--x--x--x--x--x--x--x--x--x--x--x-|-x-x-x-x-x-x--x--x--x--x--x--x--||
|--8--8--8--8--8--8--8--8--8--8--8--8-|-4-4-4-4-4-4--8--8--8--8--8--8--||
|-------------------------------------|--------------------------------||x2
|-------------------------------------|--------------------------------||
|-------------------------------------|--------------------------------||
|-------------------------------------|--------------------------------||
|
|  PM---|            PM---|             PM--|        PM-------------------|
|-------------------------------------|-----------------------------------|
|-------------------------------------|-----------------------------------|
|-------------------------------------|-----------------------------------|
|----------13----13----------13----13-|-------9---9----------13----13-----|x2
|-----------9-----9-----------9-----9-|-------6---6-----------9-----9-----|
|----------11----11----------11----11-|-------7---7----------11----11-----|
|--0--0--0-----------0--0--0----------|-0-0-0--------0--0--0--------------|
|
|  PM---|            PM---|             PM--|        PM-------------------|
|-------------------------------------|-----------------------------------|
|-------------------------------------|-----------------------------------|
|-----------8-----8-----------8-----8-|-------4---4-----------8-----8-----|
|-----------x-----x-----------x-----x-|-------x---x-----------x-----x-----|
|-----------6-----6-----------6-----6-|-------2---2-----------6-----6-----|x2
|-------------------------------------|-----------------------------------|
|--0--0--0-----------0--0--0----------|-0-0-0--------0--0--0--------------|


  Verse
  Gtr II
     PM----|   PM|   PM       PM--------------------|
|------------------------|--------------------------|
|------------------------|--------------------------|
|------------------------|--------------------------|
|------------------------|--------------------------|
|-9\---------5-----5---9-|-9\-----------------------|
|-7\---------2-----3---6-|-7\---------7-7-7S9-9-9---|
|----0-0-0-0---0-0---0---|----0-0-0-0-3-3-3S6-6-6---|


     PM----|   PM|   PM
|------------------------|-------------------------------|
|------------------------|-------------------------------|
|------------------------|-------------------------------|
|------------------------|----------0h=4-5--4--2---------|
|-9\---------5-----5---9-|------0h2--------------5--4--2-|
|-7\---------2-----3---6-|-------------------------------|
|----0-0-0-0---0-0---0---|-0h=3--------------------------|
|
| Gtr I
|------------------------|-------------------------------|
|------------------------|-------------------------------|
|------------------------|---------------9---------------|
|------------------------|----------0h12---12-11-9-------|
|------------------------|------0h9----------------12-10-|
|------------------------|-------------------------------|
|------------------------|-0h12--------------------------|


|------------------------------|
|------------------------------|
|------------------------------|
|----------0h2--4--2-0---------|
|------0h1--------------4--2-1-|
|------------------------------|
|-0h=2-------------------------|
|
|------------------------------|
|------------------------------|
|------------------------------|
|----------0h9-12-11-9---------|
|------0h9-------------13-10-9-|
|------------------------------|
|-0h11-------------------------|

  Pre-Chorus
    PM|   PM|   PM|   PM|     PM|   PM|   PM  PM  PM
|-------------------------|-------------------------|
|-------------------------|-------------7---8---7---|
|-4-----4-----6-----6-----|-7-----7-----------------|
|---4-4---4-4---4-4---4-4-|---4-4---4-4---4---4---4-|
|-------------------------|-------------------------|
|-------------------------|-------------------------|
|-------------------------|-------------------------|
|
|-------------------------|-------------------------|
|-------------------------|-------------------------|
|-------------------------|-------------------------|
|-9-9-9-9-----7-7-7-7-----|-5-5-5-5-----4-4-4-4-----|
|-9-9-9-9-----7-7-7-7-----|-5-5-5-5-----4-4-4-4-----|
|-7-7-7-7-----5-5-5-5-----|-3-3-3-3-----2-2-2-2-----|
|-------------------------|-------------------------|


    PM|   PM|   PM|   PM|
|-------------------------|-------------------------|
|-------------------------|-------------------------|
|-4-----4-----6-----6-----|-7p6---4-----7p6---4-----|
|---4-4---4-4---4-4---4-4-|-----7---7-5-----7---7-4-|
|-------------------------|-------------------------|
|-------------------------|-------------------------|
|-------------------------|-------------------------|
|
|-------------------------|-------------------------|
|-------------------------|-------------------------|
|-------------------------|-------------------------|
|-2-2-2-2-----4-4-4-4-----|-5-5-5-5-----7-7-7-7-----|
|-2-2-2-2-----4-4-4-4-----|-5-5-5-5-----7-7-7-7-----|
|-0-0-0-0-----2-2-2-2-----|-3-3-3-3-----5-5-5-5-----|
|-------------------------|-------------------------|


  Gtr II
    PM|   PM|   PM|   PM|     PM|   PM|   PM  PM  PM
|-------------------------|-------------------------|
|-------------------------|-------------7---8---7---|
|-4-----4-----6-----6-----|-7-----7-----------------|
|---4-4---4-4---4-4---4-4-|---4-4---4-4---4---4---4-|
|-------------------------|-------------------------|
|-------------------------|-------------------------|
|-------------------------|-------------------------|
|
| Gtr III
|   PM|   PM|   PM|   PM|     PM|   PM|   PM  PM  PM
|-------------------------|-------------5-------5---|
|-------------5-----5-----|-7-----7---------8-------|
|-7-----7-----------------|-------------------------|
|---4-4---4-4---4-4---4-4-|---4-4---4-4---4---4---4-|
|-------------------------|-------------------------|
|-------------------------|-------------------------|
|-------------------------|-------------------------|
|
| Gtr I
|-------------------------|-------------------------|
|-------------------------|-------------------------|
|-------------------------|-------------------------|
|-9-9-9-9-----7-7-7-7-----|-5-5-5-5-----4-4-4-4-----|
|-9-9-9-9-----7-7-7-7-----|-5-5-5-5-----4-4-4-4-----|
|-7-7-7-7-----5-5-5-5-----|-3-3-3-3-----2-2-2-2-----|
|-------------------------|-------------------------|


    PM|   PM|   PM|   PM|
|-------------------------|----------------------------|
|-------------------------|----------------------------|
|-4-----4-----6-----6-----|-7p6---4------7p6----4------|
|---4-4---4-4---4-4---4-4-|-----7---7-5-------7----7-4-|
|-------------------------|----------------------------|
|-------------------------|----------------------------|
|-------------------------|----------------------------|
|
|   PM|   PM|   PM|   PM|
|-------------------------|-------------10p9----7------|
|-------------5-----5-----|-7p5---5----------10---10-7-|
|-7-----7-----------------|-----7---7-6----------------|
|---4-4---4-4---4-4---4-4-|----------------------------|
|-------------------------|----------------------------|
|-------------------------|----------------------------|
|-------------------------|----------------------------|
|
|-------------------------|----------------------------|
|-------------------------|----------------------------|
|-------------------------|----------------------------|
|-2-2-2-2-----4-4-4-4-----|-5-5-5-5------7-7--7-7------|
|-2-2-2-2-----4-4-4-4-----|-5-5-5-5------7-7--7-7------|
|-0-0-0-0-----2-2-2-2-----|-3-3-3-3------5-5--5-5------|
|-------------------------|----------------------------|


   Chorus
    Q=142
   4/4
||--------------------|----------------------|
||--------------------|----------------------|
||o-------------------|----------------------|
||--------------------|-----7---5---4--------|
||o---------5-----5h7-|------------------7---|
||--5s7-7-7---7-------|----------------------|
||--------------------|----------------------|
|
||--------------------|-15s17--15--14---12---|
||--------------------|----------------------|
||o---------7-----7h9-|----------------------|
||--7s9-9-9---9-------|----------------------|
||o-------------------|----------------------|
||--------------------|----------------------|
||--------------------|----------------------|
|
|           PM------|               PM-----|
||--------------------|----------------------|
||--------------------|----------------------|
||o-------------------|----------------------|
||--------------------|----------------------|
||o-2-------2---2---2-|-----5-------5-5----5-|
||--2-------2---2---2-|-----5-------5-5----5-|
||--0-------0---0---0-|-----3-------3-3----3-|


                                                4x
|------------------------|----------------------||
|------------------------|----------------------||
|------------------------|---------------------o||
|-------------12------12-|-----------11-----11--||
|--9s10-10-10----10------|--9---9--9-----9-----o||
|------------------------|----------------------||
|------------------------|----------------------||
|
|                                               4x
|------------------------|----------------------||
|-------------15------15-|-----------14-----14--||
|-11s12-12-12----12------|-11--11-11----11-----o||
|------------------------|----------------------||
|------------------------|---------------------o||
|------------------------|----------------------||
|------------------------|----------------------||
|
|              PM-----|
|                                               4x
|------------------------|----------------------||
|------------------------|----------------------||
|------------------------|---------------------o||
|--5-----------5----5--5-|--4-------------------||
|--5-----------5----5--5-|--4------------------o||
|--3-----------3----3--3-|--2-------------------||
|------------------------|------------2---------||



Outro = Same as intro except rhythm guitar enters straight away

            
            
Suggest correction
Creating personal tab
Creating personal tab
You can edit any tab online and save it as your Personal.

You can edit, replace or remove any tab part or add personal notes – all changes will be seen only by you.

Personal tabs can be accessed anytime from any device, even offline.
Learn more »
comments
print report bad tab
15 comments total. Showing first comments.
0 reply
LoveIsHell 51 Sep 25, 2008 05:16 PM

nice, been waiting for a full version of this, thanks

0 reply
GuitarKid61791 46 Sep 26, 2008 02:36 AM

amazing work, thanks

0 reply
gbrundish 10 Oct 02, 2008 03:37 AM

nice one mate u got talent for working this crazy riff out and the solo and the filling

guest
You may want to rate the tab now too:
select rating
Wanna post a correction for this tab? Suggest correction