Oops, an error
Loading. Please wait.

Vengeance tab

version 1
version 1

Whole song

Interactive

by Trivium
3,047 views 1 this week
8 commentsread comments
1 2 3 4 5
x 3
add to favorites
×
Save as Personal and add changes to this tab that will be seen only by you. Learn more ›
×
You can save this tab as Personal to edit and correct it or add notes. All changes will be seen only by you. Learn more »
launch autoscroll
font size
0
reset
how to read this tab
guitar tuner
edit
Autoscroll
slow
fast
+/-
esc
set tempo
stop
Author
Difficulty
CREDIT TO - 169290 - FOR THE GP VERSION

  ////INTRO\\\\

  MATT & COREY
|--------------------------------------------------------------|
|--------------------------------------------------------------|
|--------------------------------------------------------------|
|-----------2-4-5-----------4-5-2-----------2-4-5-----2--------| X4
|-2---------0-2-3-----------2-3-0-----------0-2-3-----0-----5--|
|-0-0-0-0-0-------0-0-0-0-0-------0-0-0-0-0-------0-0---0-0-3--|
    . . . .       . . . . .       . . . . .       . .   . .

  COREY
|-------------------------10---------------------------|
|---------12------9---12--x-----13-12----13--12-10-----|
|-9-------x-------x---x---7-----x---x----x---x--x------|
|-x-------9-------7---9---------10--9----10--9--7------|
|-7----------------------------------------------------|
|------------------------------------------------------|

|------------------------------------------------------|
|---------12------10--12--10----10---------------------|
|-9-------x-------x---x---x-----x---9----9--7----------|
|-x-------9-------7---9---7-----7---x----x--x----------|
|-7---------------------------------7----7--5----------|
|------------------------------------------------------|

  MATT
|------------------------------------------------------|
|------------------------------------------------------|
|------------------------------------------------------|
|----------4--------5--------4------2------------------| X2
|-2--------2--------3--------2------0---5--------------|
|-0-------------------------------------3--------------|

  ////VERSE\\\\

  MATT & COREY - PLAY TWICE
|-------------------------------------------------------------------------|
|-------------------------------------------------------------------------|
|---------------------------------------------------------------------5-4-|
|-2-4-------------5---5-4-------------4---2-4-----4-5-4-----------5-7-----| 
|-0-2-------------3---3-2-------------2---0-2-----2-3-2-------5-7---------|
|-----0--0--0-0-0---0-----0--0--0-0-0---0-----0-0-------0-5-7-------------|
      .  .  . . .   .     .  .  . . .   .     . .       .

  COREY
|-10-12-------10-12--------|
|-------13-12-------12-10--|
|--------------------------|
|--------------------------|
|--------------------------|
|--------------------------|

  MATT
|--------------------------|
|-8--10-------8--10--------|
|-------9--10-------9--7---|
|--------------------------|
|--------------------------|
|--------------------------|

  MATT & COREY
|-------------------------------------------------------------------------|
|-------------------------------------------------------------------------|
|---------------------------------------------------------------------5-4-|
|-2-4-------------5---5-4-------------4---2-4-----4-5-4-----------5-7-----| 
|-0-2-------------3---3-2-------------2---0-2-----2-3-2-------5-7---------|
|-----0--0--0-0-0---0-----0--0--0-0-0---0-----0-0-------0-5-7-------------|
      .  .  . . .   .     .  .  . . .   .     . .       .

  MATT & COREY
|-------------------------------------------------------------------------|
|-------------------------------------------------------------------------|
|-------------------------------------------------------------------------|
|-2-4-------------5---5-4-------------4---2-4-----4-5-----2-4---4---4---4-|
|-0-2-------------3---3-2-------------2---0-2-----2-3-----0-2---2---2---2-|
|-----0--0--0-0-0---0-----0--0--0-0-0---0-----0-0-----0-0-----------------|
      .  .  . . .   .     .  .  . . .   .     . .     . .

  MATT & COREY
|--------------------------------------------------------------|
|--------------------------------------------------------------|
|--------------------------------------------------------------|
|-----------2-4-5-----------4-5-2-----------2-4-5-----2--------| X2
|-2---------0-2-3-----------2-3-0-----------0-2-3-----0-----5--|
|-0-0-0-0-0-------0-0-0-0-0-------0-0-0-0-0-------0-0---0-0-3--|
    . . . .       . . . . .       . . . . .       . .   . .

  ////CHORUS\\\\ - PLAY TWICE

  COREY
|-------------------------10---------------------------|
|---------12------9---12--x-----13-12----13--12-10-----|
|-9-------x-------x---x---7-----x---x----x---x--x------|
|-x-------9-------7---9---------10--9----10--9--7------|
|-7----------------------------------------------------|
|------------------------------------------------------|

|------------------------------------------------------|
|---------12------10--12--10----10---------------------|
|-9-------x-------x---x---x-----x---9----9--7----------|
|-x-------9-------7---9---7-----7---x----x--x----------|
|-7---------------------------------7----7--5----------|
|------------------------------------------------------|

  MATT
|------------------------------------------------------|
|------------------------------------------------------|
|------------------------------------------------------|
|----------4--------5--------4------2------------------| X2
|-2--------2--------3--------2------0---5--------------|
|-0-------------------------------------3--------------|

  ////VERSE\\\\

  MATT & COREY - PLAY TWICE
|-------------------------------------------------------------------------|
|-------------------------------------------------------------------------|
|---------------------------------------------------------------------5-4-|
|-2-4-------------5---5-4-------------4---2-4-----4-5-4-----------5-7-----| 
|-0-2-------------3---3-2-------------2---0-2-----2-3-2-------5-7---------|
|-----0--0--0-0-0---0-----0--0--0-0-0---0-----0-0-------0-5-7-------------|
      .  .  . . .   .     .  .  . . .   .     . .       .

  COREY
|-10-12-------10-12--------|
|-------13-12-------12-10--|
|--------------------------|
|--------------------------|
|--------------------------|
|--------------------------|

  MATT
|--------------------------|
|-8--10-------8--10--------|
|-------9--10-------9--7---|
|--------------------------|
|--------------------------|
|--------------------------|

  MATT & COREY
|-------------------------------------------------------------------------|
|-------------------------------------------------------------------------|
|---------------------------------------------------------------------5-4-|
|-2-4-------------5---5-4-------------4---2-4-----4-5-4-----------5-7-----| 
|-0-2-------------3---3-2-------------2---0-2-----2-3-2-------5-7---------|
|-----0--0--0-0-0---0-----0--0--0-0-0---0-----0-0-------0-5-7-------------|
      .  .  . . .   .     .  .  . . .   .     . .       .

  MATT & COREY
|-------------------------------------------------------------------------|
|-------------------------------------------------------------------------|
|-------------------------------------------------------------------------|
|-2-4-------------5---5-4-------------4---2-4-----4-5-----2-4---4---4---4-|
|-0-2-------------3---3-2-------------2---0-2-----2-3-----0-2---2---2---2-|
|-----0--0--0-0-0---0-----0--0--0-0-0---0-----0-0-----0-0-----------------|
      .  .  . . .   .     .  .  . . .   .     . .     . .  

  MATT & COREY
|--------------------------------------------------------------|
|--------------------------------------------------------------|
|--------------------------------------------------------------|
|-----------2-4-5-----------4-5-2-----------2-4-5-----2--------| X2
|-2---------0-2-3-----------2-3-0-----------0-2-3-----0-----5--|
|-0-0-0-0-0-------0-0-0-0-0-------0-0-0-0-0-------0-0---0-0-3--|
    . . . .       . . . . .       . . . . .       . .   . .

  ////CHORUS\\\\ - PLAY TWICE

  COREY
|-------------------------10---------------------------|
|---------12------9---12--x-----13-12----13--12-10-----|
|-9-------x-------x---x---7-----x---x----x---x--x------|
|-x-------9-------7---9---------10--9----10--9--7------|
|-7----------------------------------------------------|
|------------------------------------------------------|

|------------------------------------------------------|
|---------12------10--12--10----10---------------------|
|-9-------x-------x---x---x-----x---9----9--7----------|
|-x-------9-------7---9---7-----7---x----x--x----------|
|-7---------------------------------7----7--5----------|
|------------------------------------------------------|

  MATT
|------------------------------------------------------|
|------------------------------------------------------|
|------------------------------------------------------|
|----------4--------5--------4------2------------------| X2
|-2--------2--------3--------2------0---5--------------|
|-0-------------------------------------3--------------|

  ////BRIDGE\\\\\ - PLAY TWICE

  MATT & COREY 
|---------------------------------------------------------------|
|---------------------------------------------------------------|
|---------------------------------------------------------------|
|---------------------------------------------------------------|
|-2----------------------------------------------------------5--|
|-0--0-0-0-0-000-000-0-0-0-0-000-000-0-0-0-0-000-000-000-0-0-3--|
     . . . . ... ... . . . . ... ... . . . . ... ... ... . .

|------------------------------------------------|
|------------------------------------------------|
|------------------------------------------------|
|------------------------------------------------|
|-2----------------------------------------------| 
|-0--0-0-0-0-000-000-0-0-0-0-000-000-0-0-0-0-000-| 
     . . . . ... ... . . . . ... ... . . . . ...

|--------------------------|
|--------------------------|
|--------------------------|
|--------------------------|
|-----2-----3-2-----2-0----|
|-2-3---2-3-----2-0-----1--|

  ////INTERLUDE\\\\

  MATT & COREY
|--------------------------|
|--------------------------|
|--------------------------|
|--------------------------| X3
|-----2-----3-2-----2-0----|
|-2-3---2-3-----2-0-----1--|

  ////SOLO\\\\

  COREY
|-----------------------------------------------------------------------|
|-----------------------------------------------------------------------|
|-----------------------------------------------------------------------|
|-15-14-12-10------------------------15-14-12-10------------------------|
|-------------15-14-12-10------------------------15-14-12-10------------|
|-------------------------13-12-10-9-------------------------13-12-10-9-|

|-----------------------------------------------------------------------|
|-----------------------------------------------------------------------|
|-14-12-10-9-------------------------14-12-10-9-------------------------|
|------------15-14-12-10------------------------15-14-12-10-------------|
|------------------------15-14-12-10------------------------15-14-12-10-|
|-----------------------------------------------------------------------|

|-----------------------------------------------------------------------|
|-13-12-11-9------------------------13-12-11-9--------------------------|
|------------14-12-10-9-------------------------14-12-10-9--------------|
|------------------------15-14-10-9-------------------------15-14-10-9--|
|-----------------------------------------------------------------------|
|-----------------------------------------------------------------------|

|-----------------------------------------------12-14-17fb--------------|
|-15-14-12-11-----------------------15-14-12-11-------------------------|
|-------------14-12-10-9------------------------------------------------|
|------------------------15-14-10-9-------------------------------------|
|-----------------------------------------------------------------------|
|-----------------------------------------------------------------------|

  MATT
|--------------------------------------------------------------------|
|--------------------------------------------------------------------|
|----------------5--5------------------------------7--7--------------|
|-2--2-----------2--2---------------5--5-----------5--5--------------|
|-0--0--0-0-0-0--0--0--0-0-0-0-0-0--3--3--3-3-3-3--------3-3-3-3-3-3-|
|--------------------------------------------------------------------|

|----------------------------------------------------------------|
|----------------------------------------------------------------|
|----------------5--5--------------------------------------------|
|-2--2-----------2--2--------------------------------7--7--5--5--|
|-0--0--0-0-0-0--0--0--0-0-0-0-0-0--5--5-------------5--5--3--3--|
|-----------------------------------3--3--3-3-3-3-3--------------|

  MATT
|-17-14----------14-17-14----------14-17-19-15----------20-----------|
|-------15----15----------15----15-------------18-17-15--------------|
|----------14----------------14--------------------------------------|
|--------------------------------------------------------------------|
|--------------------------------------------------------------------|
|--------------------------------------------------------------------|

|-15-20-15-19-15-17-15----15----15------------------------|
|----------------------18----17----15---------------------|
|-------------------------------------12v-----------------|
|---------------------------------------------------------|
|---------------------------------------------------------|
|---------------------------------------------------------|

|-------------------------------------------------------------------------|
|-14-12-10----------14-12-10----------10-14-12----------10-12-14----14-16-|
|----------12-10-------------12----10----------10----12----------12-------|
|----------------14-------------14----------------14----------------------|
|-------------------------------------------------------------------------|
|-------------------------------------------------------------------------|

|-15fb---------19--17--------------20fb----------------|
|----------------------18--17--------------------------|
|------------------------------17----------------------|
|------------------------------------------------------|
|------------------------------------------------------|
|------------------------------------------------------|

|----------------------------------------------15fb----------------|
|-13-13-13-17-13-13-13-17-13-13-17-13-13-13-13---------13-13-13-17-|
|------------------------------------------------------------------|
|------------------------------------------------------------------|
|------------------------------------------------------------------|
|------------------------------------------------------------------|

|------------------------------------------------------------------|
|-13-13-13-17-13-13-17-13-13---------------------------------------|
|----------------------------15-14----------17--17/(15)----15\(14)-|
|----------------------------------17-15-14-------------17---------|
|------------------------------------------------------------------|
|------------------------------------------------------------------|

|---------------------------------------17-------20-17----------17-------|
|---------------------------------17-20----20-17-------20-17-20----20-17-|
|----14\(12)----14/(15)----17v-17----------------------------------------|
|-15---------14---------17-----------------------------------------------|
|------------------------------------------------------------------------|
|------------------------------------------------------------------------|

|-------20-17----------------17---------------------------------|
|----17-------20-17----17-20----20-17----19---------------------|
|-17----------------20----------------20-19---------------------|
|---------------------------------------------------------------|
|---------------------------------------------------------------|
|---------------------------------------------------------------|

  COREY - PLAY TWICE
|--------------------------------------------------------------------|
|--------------------------------------------------------------------|
|----------------5--5------------------------------7--7--------------|
|-2--2-----------2--2---------------5--5-----------5--5--------------|
|-0--0--0-0-0-0--0--0--0-0-0-0-0-0--3--3--3-3-3-3--------3-3-3-3-3-3-|
|--------------------------------------------------------------------|

|----------------------------------------------------------------|
|----------------------------------------------------------------|
|----------------5--5--------------------------------------------|
|-2--2-----------2--2--------------------------------7--7--5--5--|
|-0--0--0-0-0-0--0--0--0-0-0-0-0-0--5--5-------------5--5--3--3--|
|-----------------------------------3--3--3-3-3-3-3--------------|

  ////CHORUS\\\\ - PLAY TWICE

  COREY
|-------------------------10---------------------------|
|---------12------9---12--x-----13-12----13--12-10-----|
|-9-------x-------x---x---7-----x---x----x---x--x------|
|-x-------9-------7---9---------10--9----10--9--7------|
|-7----------------------------------------------------|
|------------------------------------------------------|

|------------------------------------------------------|
|---------12------10--12--10----10---------------------|
|-9-------x-------x---x---x-----x---9----9--7----------|
|-x-------9-------7---9---7-----7---x----x--x----------|
|-7---------------------------------7----7--5----------|
|------------------------------------------------------|

  MATT
|------------------------------------------------------|
|------------------------------------------------------|
|------------------------------------------------------|
|----------4--------5--------4------2------------------| X2
|-2--------2--------3--------2------0---5--------------|
|-0-------------------------------------3--------------|

  ////OUTRO\\\\

  MATT & COREY - PLAY TWICE
|-------------------------------------------------------------------------|
|-------------------------------------------------------------------------|
|---------------------------------------------------------------------5-4-|
|-2-4-------------5---5-4-------------4---2-4-----4-5-4-----------5-7-----| 
|-0-2-------------3---3-2-------------2---0-2-----2-3-2-------5-7---------|
|-----0--0--0-0-0---0-----0--0--0-0-0---0-----0-0-------0-5-7-------------|
      .  .  . . .   .     .  .  . . .   .     . .       .

  COREY
|-10-12-------10-12-----------------------------------------------------|
|-------12-13-------12-10-----------------------------------------------|
|-------------------------11-12-11-12-----------------------------------|
|-------------------------------------12-14-11-------2------------------|
|----------------------------------------------12----0------------------|
|-----------------------------------------------------------------------|

  MATT
|-----------------------------------------------------------------------|
|-8--10-------8--10-----------------------------------------------------|
|-------9--10-------9--7------------------------------------------------|
|-------------------------9--10-9-10----------------2-------------------|
|------------------------------------10-12-9--------0-------------------|
|---------------------------------------------12------------------------|



            
            
Suggest correction
Creating personal tab
Creating personal tab
You can edit any tab online and save it as your Personal.

You can edit, replace or remove any tab part or add personal notes – all changes will be seen only by you.

Personal tabs can be accessed anytime from any device, even offline.
Learn more »
Give kudos to tab author, rate the tab!
1 2 3 4 5
comments
print report bad tab
8 comments total. Showing first comments.
0 reply
sweatyuvy 10 Nov 07, 2006 10:03 AM

goood stufff

0 reply
Adam*The Chaos* 51 Nov 26, 2006 06:09 AM

I didnt really like it

0 reply
zackvalo16 119 Dec 29, 2006 10:32 AM

it seems right...great song...

guest
You may want to rate the tab now too:
select rating
Wanna post a correction for this tab? Suggest correction