Oops, an error
Loading. Please wait.

Big Prize tab

version 1
version 1

Whole song

Interactive

21,684 views 30 this week
3 commentsread comments
1 2 3 4 5
x 31
add to favorites
×
Save as Personal and add changes to this tab that will be seen only by you. Learn more ›
×
You can save this tab as Personal to edit and correct it or add notes. All changes will be seen only by you. Learn more »
launch autoscroll
font size
0
reset
how to read this tab
guitar tuner
edit
Autoscroll
slow
fast
+/-
esc
set tempo
stop
Author
Red Vs Blue Reconstruction Theme
© 2008, Rooster Teeth Productions, LLC
www.roosterteeth.com

X : Mute

e|----------------------------------------------------------|
B|----------------------------------------------------------|
G|----------------------------------------------------------|
D|-------2---0---------2--------------2--------0------------|
A|----0----3--------3-----3---0----------3--0---------------|
E|----------------------------------------------------------|


e|----------------------------------------------------------|
B|----------------------------------------------------------|
G|---2-2----------2-2---------------------------------------|
D|-----------------------------2--2----0-------2-2----------|
A|-------3-0----------3-0-----------3-------3--------3--0---|
E|----------------------------------------------------------|


e|----------------------------------------------------------|
B|----------------------------------------------------------|
G|----------------------------------------------------------|
D|--22X---22X---22X---22X---2-----2-2-----------------------|
A|--00X---00X---00X---00X---0---0-----3-0-X-----------------|
E|----------------------------------------------------------|

            
            
Suggest correction
Creating personal tab
Creating personal tab
You can edit any tab online and save it as your Personal.

You can edit, replace or remove any tab part or add personal notes – all changes will be seen only by you.

Personal tabs can be accessed anytime from any device, even offline.
Learn more »
comments
print report bad tab
3 comments total.
0 reply
bazmaestro141 45 Feb 08, 2014 02:23 AM

My friend this an absolutely epic tab, I was surprised anyone had done it but this is just epic

Thank you very much :D

0 reply
mr.timn15 10 Aug 16, 2015 01:35 AM

The actual song is called Big Prize

https://www.youtube.com/watch?v=_OZ8LoQi6LM

0 reply
cyberonix304 10 Oct 04, 2017 02:49 AM

great good work

guest
You may want to rate the tab now too:
select rating
Wanna post a correction for this tab? Suggest correction