Oops, an error
Loading. Please wait.

No One ukulele

127 views 1 this week
no commentswrite comment
1 2 3 4 5
3 more votes to show rating
add to favorites
×
Save as Personal and add changes to this tab that will be seen only by you. Learn more ›
×
You can save this tab as Personal to edit and correct it or add notes. All changes will be seen only by you. Learn more »
launch autoscroll
font size
0
reset
transpose
0
reset
simplify chords
display chords
guitar tuner
edit
Autoscroll
slow
fast
+/-
esc
set tempo
stop
About this tab version
Likely not completely accurate to the original song, but it sounds good on the soprano ukulele. As a soprano ukulele cannot play as high as this piece's marimba solo, the riff at the beginning is slightly modified, but should be played with the same rhythm and feel. Was this info helpful? Yes No
Strumming Is this strumming pattern correct? Yes No
140 bpm
1
&
2
&
3
&
4
&
5
&
6
&
7
&
8
&
Listen
[Riff]
A|-------2-5-7-5-0-2---------2-5-7-5-10-5-7-|
E|-0-3-0---------------0-3-0----------------|
C|-------------------2----------------------|
G|------------------------------------------|

A|-------2-5-7-5-2-5-7-5-7-2-5-0-2----------|
E|-0-3-0-----------------------------0------|
C|---------------------------------2--------|
G|------------------------------------------|

or
Em Cmaj7 Em Cmaj7

[Verse 1]
Em                         Cmaj7
Where is the one that will mourn me when I'm
Em                        Cmaj7
Gone, who will pour water on my bed of
Em                          Cmaj7         Em     Cmaj7
Dirt, who will breathe fire on my neck at night
  Em                          Cmaj7
I heard someone say there's a chance that I will meet her
Em                   Cmaj7
I could be Perse-pho-ne and she Demeter
Em                    Cmaj7              Em   Cmaj7
Pull me from the underground that I call home

[Chorus]
    G
Her name is no one no one no one
    D
She blinds me with her eyes 'cause she's the one, the one
Em                                    Cmaj7
She lives somewhere not here not here not here

A|-------2-5-7-5-0-2---------2-5-7-5-10-5-7-|
E|-0-3-0---------------0-3-0----------------|
C|-------------------2----------------------|
G|------------------------------------------|

A|-------2-5-7-5-2-5-7-5-7-2-5-0-2----------|
E|-0-3-0-----------------------------0------|
C|---------------------------------2--------|
G|------------------------------------------|

or
Em Cmaj7 Em Cmaj7

[Verse 2]
   Em
My lovers are as smooth
     Cmaj7
As a politician's tongue
    Em
The more I look for goodness
    Cmaj7            Em    Cmaj7
The more that I find none
  Em                           Cmaj7
I heard someone say that she's honest and good
Em                           Cmaj7
Heard someone say that she's honest and good
Em                           Cmaj7
Heard someone say that she's honest and good

[Bridge]
G
Her name is no one no one no one
Bm
Her name is no one no one no one
F
No one no one
Ab
No one no one

[Chorus]
    G
Her name is no one no one no one
    D
She blinds me with her eyes 'cause she's the one the one
Em
She lives somewhere not here not here
C
Not here not here

A|-------2-5-7-5-0-2---------2-5-7-5-10-5-7-|
E|-0-3-0---------------0-3-0----------------|
C|-------------------2----------------------|
G|------------------------------------------|

A|-------2-5-7-5-2-5-7-5-7-2-5-0-2----------|
E|-0-3-0-----------------------------0------|
C|---------------------------------2--------|
G|------------------------------------------|

or
Em Cmaj7 Em Cmaj7

[Verse 3]
  Em
I measure out my days
     Cmaj7
With sips of a corona
    Em
I'm pretty sure she drives
   Cmaj7
An old fucked up corolla
   Em                    Cmaj7
To pull me from the underground
            Em    Cmaj7
That I call home
Em
I've a funny feeling
           Cmaj7
There's no chance that I will meet her
        Em
So I'll measure out my nights
      Cmaj
To my metronome's meter

(Hit uke body in time 10 times before striking next chord)

[Outro]
Em
Her name is no one
Cmaj7
Her name is no one
Em
Her name is no one

            
            
Suggest correction
Creating personal tab
Creating personal tab
You can edit any tab online and save it as your Personal.

You can edit, replace or remove any tab part or add personal notes – all changes will be seen only by you.

Personal tabs can be accessed anytime from any device, even offline.
Learn more »
Give kudos to tab author, rate the tab!
1 2 3 4 5
comments
print report bad tab
guest
You may want to rate the tab now too:
select rating
Wanna post a correction for this tab? Suggest correction