Oops, an error
Loading. Please wait.

Aceptar bass

version 2
version 2

Whole song

Interactive

by Tronic
157 views 1 this week
no commentswrite comment
1 2 3 4 5
3 more votes to show rating
add to favorites
×
Save as Personal and add changes to this tab that will be seen only by you. Learn more ›
×
You can save this tab as Personal to edit and correct it or add notes. All changes will be seen only by you. Learn more »
launch autoscroll
font size
0
reset
guitar tuner
edit
Autoscroll
slow
fast
+/-
esc
set tempo
stop
Author
+++++++++++++++++++
| Tronic- Aceptar |
+++++++++++++++++++


"Nada supera ser tu mismo..."

Tuning: EADG


Intro
1.
G|-------------------------------------------------------------------------|
D|--------------------------------2222--------------------------------2222-|
A|-44444444-44444444-00000000-0000-----22222222-22222224-00000000-0000-----|
E|-------------------------------------------------------------------------|

Verse
"Aceptar al que no es igual a ti..."
2.
G|-------------------------------------------------------------------------|
D|--------------------------------2222-------------------------------------|
A|-44444444-44444444-00000000-0000-----22222222-22222224-00000000-00000000-|
E|-------------------------------------------------------------------------|

"Es avanzar, es compartir..."
3.
G|-------------------------------------------------------------------------|
D|--------------------------------2222-------------------------------------|
A|-77777777-77777777-00000000-0000-----22222222-22222222/44444444-44444444-|
E|-------------------------------------------------------------------------|

Chorus
"Nada le gana a la sinceridad..."
4.
G|-----------------------------------------------------------------------|
D|---------2-22-------------2-22--------------2-22-----------------------|
A|-0-002-22---------0-002-22----------0-002-22---------00000000-22222222-|
E|-------------2222-------------222x--------------2222-------------------|

Outro
5.
G|-------------------|
D|-2~----------------|
A|-------------------|
E|-------------------|

Verse
"Se rompió su corazón..."
6.
G|-------------------------------------------------------------------------|
D|--------------------------------2222-------------------------------------|
A|-44444444-44444444-00000000-0000-----22222222-22222224-00000000-00000000-|
E|-------------------------------------------------------------------------|

"Yo solo dí mi amistad...'
7.
G|-------------------------------------------------------------------------|
D|--------------------------------2222-------------------------------------|
A|-77777777-77777777-00000000-0000-----22222222-22222222/44444444-44444444-|
E|-------------------------------------------------------------------------|

Chorus
"Nada le gana a la sinceridad..."
8.
G|-----------------------------------------------------------------------|
D|---------2-22-------------2-22--------------2-22-----------------------|
A|-0-002-22---------0-002-22----------0-002-22---------00000000-22222222-|
E|-------------2222-------------222x--------------2222-------------------|

"No pienses que sabemos la vedad..."
9.
G|-----------------------------------------------------------------------|
D|---------2-22-------------2-22--------------2-22-----------------------|
A|-0-002-22---------0-002-22----------0-002-22---------00000000-22222222-|
E|-------------2222-------------222x--------------2222-------------------|

Bridge
10.
G|-------------------------------------------------------------------------|
D|-------------------------------------------------------66666666-44444444-|
A|-44444444-44446666-00000000-00000000-22222222-22222222-------------------|
E|-------------------------------------------------------------------------|

11.
G|-------------------------------------------------------------------------|
D|-------------------------------------------------------------------------|
A|-44444444-44446666-77777777-77777777-22222222-22222222-00000000-00000000-|
E|-------------------------------------------------------------------------|

Chorus
"Nada le gana a la sinceridad..."
12.
G|-----------------------------------------------------------------------|
D|---------2-22-------------2-22--------------2-22-----------------------|
A|-0-002-22---------0-002-22----------0-002-22---------00000000-22222222-|
E|-------------2222-------------222x--------------2222-------------------|

"No pienses que sabemos la vedad..."
13.
G|-----------------------------------------------------------------------|
D|---------2-22-------------2-22--------------2-22-----------------------|
A|-0-002-22---------0-002-22----------0-002-22---------00000000-22222222-|
E|-------------2222-------------222x--------------2222-------------------|

Outro
14.
G|-------------------------------------------------------------------------|
D|--------------------------------2222--------------------------------2222-|
A|-44444444-44444444-00000000-0000-----22222222-22222224-00000000-0000-----|
E|-------------------------------------------------------------------------|

15.
G|-------------------------------------------------------------------------|
D|-------------------------------------------------------------------------|
A|-77777777-77777777-00000000-00000000-22222222-22222224-00000000-00000000-|
E|-------------------------------------------------------------------------|

16.
G|-------------------------------------------------------------------------|
D|--------------------------------2222--------------------------------2222-|
A|-44444444-44444444-00000000-0000-----22222222-22222224-00000000-0000-----|
E|-------------------------------------------------------------------------|

17.
G|-------------------------------------------------------------------------|
D|-------------------------------------------------------------------------|
A|-77777777-77777777-00000000-00000000-22222222-22222224-00000000-00000000-|
E|-------------------------------------------------------------------------|

18.
G|-------------------|
D|-------------------|
A|-4~----------------|
E|-------------------|


Lyrics:


Aceptar al que no es 
Igual a ti es madurar
Es avanzar, es compartir
Al entregar recibirás

Nada le gana a la sinceridad
Nada supera ser tu mismo
Envidia forma barata para criticar
Tanto egoísmo

Se rompió su corazón
Que pasa Dios? Si no fuí yo
Yo solo dí mi amistad
Lo entristeció y entristeció

No pienses que sabemos la verdad
Cantamos lo que pensamos
En la misma calle caminamos
Porque peliarnos?



+++++++++++++++++++++++++++++++++
| RaiLeff                       |
| Underground__Dora@Hotmail.Com |
+++++++++++++++++++++++++++++++++

            
            
Suggest correction
Creating personal tab
Creating personal tab
You can edit any tab online and save it as your Personal.

You can edit, replace or remove any tab part or add personal notes – all changes will be seen only by you.

Personal tabs can be accessed anytime from any device, even offline.
Learn more »
Give kudos to tab author, rate the tab!
1 2 3 4 5
comments
print report bad tab
guest
You may want to rate the tab now too:
select rating
Wanna post a correction for this tab? Suggest correction