Oops, an error
Loading. Please wait.

Chichavino bass

version 1
version 1

Whole song

Interactive

by Tronic
371 views 1 this week
no commentswrite comment
1 2 3 4 5
3 more votes to show rating
add to favorites
×
Save as Personal and add changes to this tab that will be seen only by you. Learn more ›
×
You can save this tab as Personal to edit and correct it or add notes. All changes will be seen only by you. Learn more »
launch autoscroll
font size
0
reset
guitar tuner
edit
Autoscroll
slow
fast
+/-
esc
set tempo
stop
Author
++++++++++++++++++++++
| Tronic- Chichavino |
++++++++++++++++++++++


"Hoy quiero robar un poco de tí..."

Tuning: EADG


Intro
1.
G|---------------------33-3-22-00------------|
D|-----------------------3--------3333-3333--|
A|-----------3333-5555-----------------------|
E|-6660-1111---------------------------------|

Verse
"Hoy quiero robar..."
2.
G|-------5-2x------3---5-5----------|
D|-3x------------3---3-----3x----2--|
A|----------------------------------|
E|----------------------------------|

"Para comprar el chivo..."
3.
G|-------5-2x------3---5-5----------|
D|-3x------------3---3-----3333333--|
A|----------------------------------|
E|----------------------------------|

Chorus
"Si tu no me entiendes bien..."
4.
G|---------------------33-3-22-00------------|
D|-----------------------3--------3333-3333--|
A|-----------3333-5555-----------------------|
E|-6660-1111---------------------------------|

Verse
"Y si tu me mandai..."
5.
G|-------5-2x------3---5-5----------|
D|-3x------------3---3-----3x----2--|
A|----------------------------------|
E|----------------------------------|

"Yo quedo feliz..."
6.
G|-------5-2x------3---5-5----------|
D|-3x------------3---3-----3333333--|
A|----------------------------------|
E|----------------------------------|

Chorus
"Si tu no me entiendes bien..."
7.
G|---------------------33-3-22-00------------|
D|-----------------------3--------3333-3333--|
A|-----------3333-5555-----------------------|
E|-6660-1111---------------------------------|

8.
G|---------------------3~---2~-0~------------|
D|--------------------------------3333-3333--|
A|-----------3333-5555-----------------------|
E|-6660-1111---------------------------------|

Bridge
9.
G|-33-33-333-333-------------------------------------------|
D|---------------33-33-333-333-55-55-557-777-33-35-557-777-|
A|---------------------------------------------------------|
E|---------------------------------------------------------|

10.
G|-33-33-333-333------------------------------------------------|
D|---------------33-33-333-333---------5-555-3-3-3-3-3-3-3-3-3x-|
A|-----------------------------33-33-33-------------------------|
E|--------------------------------------------------------------|

Chorus
"Si tu no me entiendes bien..."
11.
G|---------------------33-3-22-00------------|
D|-----------------------3--------3333-3333--|
A|-----------3333-5555-----------------------|--x2
E|-6660-1111---------------------------------|

Outro
"El vino me domina y es así..."
12.
G|-33-3-2~-0~------|
D|---3--------3~---|
A|-----------------|
E|-----------------|


Lyrics:


Ya weon dale, los 3... Bah

Hoy quiero robar un poco de ti
Para comprar el chivo que perdí

Si tu no me entiendes bien, olvidaté de mi
El vino me domina y es así

Y si tu me mandai a la conchetumare
Yo quedo feliz porque mi chivo esta aqui



+++++++++++++++++++++++++++++++++
| RaiLeff                       |
| Underground__Dora@Hotmail.Com |
+++++++++++++++++++++++++++++++++

            
            
Suggest correction
Creating personal tab
Creating personal tab
You can edit any tab online and save it as your Personal.

You can edit, replace or remove any tab part or add personal notes – all changes will be seen only by you.

Personal tabs can be accessed anytime from any device, even offline.
Learn more »
Give kudos to tab author, rate the tab!
1 2 3 4 5
comments
print report bad tab
guest
You may want to rate the tab now too:
select rating
Wanna post a correction for this tab? Suggest correction