Oops, an error
Loading. Please wait.

Evoluciona bass

version 1
version 1

Whole song

by Tronic
511 views 1 this week
no commentswrite comment
1 2 3 4 5
3 more votes to show rating
add to favorites
×
Save as Personal and add changes to this tab that will be seen only by you. Learn more ›
×
You can save this tab as Personal to edit and correct it or add notes. All changes will be seen only by you. Learn more »
launch autoscroll
font size
0
reset
guitar tuner
edit
Autoscroll
slow
fast
+/-
esc
set tempo
stop
Author
++++++++++++++++++++++
| Tronic- Evoluciona |
++++++++++++++++++++++


"La distancia no nos separa porque tu estás en mi..."

Tuning: EADG


Intro
1.
G|-------------------------------|
D|-55--55-55--55-55--55----3--3--|
A|----------------------3-5--3-3-|
E|-------------------------------|

2.
G|-------------------------3-3-5-7---|
D|-55--55-55--55-55--55-3-5-------55-|
A|-----------------------------------|
E|-----------------------------------|

Verse
"Como evitar el hablar de nosotros..."
3.
G|------------------------------------|
D|--------------------------55555555~-|
A|------------------------------------|--x2
E|------------------------------------|

"Me pongo a reir al pensar..."
4.
G|-------------------------------|
D|-55--55-55--55-55--55----3--3--|
A|----------------------3-5--3-3-|
E|-------------------------------|

"Mejor olvidar y pensar..."
5.
G|------------------------------|
D|-55--55-55--55-55--55-5555555-|
A|------------------------------|
E|------------------------------|

Pre-Chorus
"Yo no sé si tu sabes bien de mi..."
6.
G|-------------------------------------|
D|-11111111\55555553-11111111\88888888-|
A|-------------------------------------|
E|-------------------------------------|

"No preocupes, yo te voi a salvar..."
7.
G|-------------------------------------|
D|-11111111----------55555555-11111111-|
A|----------33333333-------------------|
E|-------------------------------------|

Chorus
"La distancia no nos separa..."
8.
G|---------------------------------------|
D|---------------------------------------|
A|-11111111-111\55555-33333333-333333-55-|
E|---------------------------------------|

"Porque tu estás en mi..."
9.
G|-------------------------------------|
D|-------------------------------------|
A|-66666666-66663333-11111111-11111111-|
E|-------------------------------------|

"No te das cuenta, ya me encontraste..."
10.
G|---------------------------------------|
D|---------------------------------------|
A|-11111111-111\55555-33333333-333333-55-|
E|---------------------------------------|

"Disfrutame, voi a morir..."
11.
G|----------------------------33333333-|
D|-------------------------------------|
A|-66666666-66663333-11111111----------|
E|-------------------------------------|

Verse
"No es facil crear..."
12.
G|------------------------------------|
D|--------------------------55555555~-|
A|------------------------------------|--x2
E|------------------------------------|

"Si tu tirai mierda..."
13.
G|-------------------------------|
D|-55--55-55--55-55--55----3--3--|
A|----------------------3-5--3-3-|
E|-------------------------------|

"Evoluciona, el pasado no existe..."
14.
G|------------------------------|
D|-55--55-55--55-55--55-5555555-|
A|------------------------------|
E|------------------------------|

Pre-Chorus
"Yo no se si yo sé mucho de ti..."
15.
G|-------------------------------------|
D|-11111111\55555553-11111111\88888888-|
A|-------------------------------------|
E|-------------------------------------|

"No preocupes, no conosco el rencor..."
16.
G|-------------------------------------|
D|-11111111----------55555555-11111111-|
A|----------33333333-------------------|
E|-------------------------------------|

Chorus
"La distancia no nos separa..."
17.
G|---------------------------------------|
D|---------------------------------------|
A|-11111111-111\55555-33333333-333333-55-|
E|---------------------------------------|

"Porque tu estas en mi..."
18.
G|-------------------------------------|
D|-------------------------------------|
A|-66666666-66663333-11111111-11111111-|
E|-------------------------------------|

"No te das cuenta, ya me encontraste..."
19.
G|---------------------------------------|
D|---------------------------------------|
A|-11111111-111\55555-33333333-333333-55-|
E|---------------------------------------|

"Disfrutame, voi a morir..."
20.
G|-------------------------------------|
D|-------------------------------------|
A|-66666666-66663333-11111111-11111111-|
E|-------------------------------------|

"No te preocupes, no estoy mintiendo..."
21.
G|---------------------------------------|
D|---------------------------------------|
A|-11111111-111\55555-33333333-333333-55-|
E|---------------------------------------|

"Si muero, muero feliz..."
22.
G|----------------------------33333333-|
D|-------------------------------------|
A|-66666666-66663333-11111111----------|
E|-------------------------------------|

Outro
23.
G|-------------------------------|
D|-55--55-55--55-55--55----3--3--|
A|----------------------3-5--3-3-|
E|-------------------------------|

24.
G|-------------------------3-3-5-7---|
D|-55--55-55--55-55--55-3-5-------55-|
A|-----------------------------------|
E|-----------------------------------|


Lyrics:


Como evitar el hablar de nosotros?
Como creer en Dios, si nos mata
Me pongo a reir al pensar
Lo que queremos, hacemos
Mejor olvidar y pensar en lo nuevo

Yo no sé si tu sabes bien de mi
No preocupes, yo te voi a salvar

La distancia no nos separa
Porque tu estás en mi
No te das cuenta, ya me encontraste
Disfrutame, voi a morir

No es facil crear cuando todo se cae
Mejor olvidar y empezar algo nuevo
Si tu tirai mierda, no te quejes
Cuando todos te caguen
Evoluciona, el pasado no existe

Yo no sé si yo se mucho de ti
No preocupes, no conosko el rencor

No te preocupes, no estoy mintiendo
Si muero, muero feliz



+++++++++++++++++++++++++++++++++
| RaiLeff                       |
| Underground__Dora@hotmail.Com |
+++++++++++++++++++++++++++++++++

            
            
Suggest correction
Creating personal tab
Creating personal tab
You can edit any tab online and save it as your Personal.

You can edit, replace or remove any tab part or add personal notes – all changes will be seen only by you.

Personal tabs can be accessed anytime from any device, even offline.
Learn more »
Give kudos to tab author, rate the tab!
1 2 3 4 5
comments
print report bad tab
guest
You may want to rate the tab now too:
select rating
Wanna post a correction for this tab? Suggest correction