Oops, an error
Loading. Please wait.

Evoluciona album bass

version 1
version 1

Album

Whole song

by Tronic
1,193 views 1 this week
no commentswrite comment
1 2 3 4 5
3 more votes to show rating
add to favorites
×
Save as Personal and add changes to this tab that will be seen only by you. Learn more ›
×
You can save this tab as Personal to edit and correct it or add notes. All changes will be seen only by you. Learn more »
launch autoscroll
font size
0
reset
guitar tuner
edit
Autoscroll
slow
fast
+/-
esc
set tempo
stop
Author
++++++++++++++++++++++
| Tronic- Evoluciona |
++++++++++++++++++++++


Bass Tab
Album: "Evoluciona" -- 2005
Tabbed By: RaiLeff
E-Mail: Underground__Dora@Hotmail.Com


Im really glad to present
Tronic's second album
Enjoy!


..::RaiLeff::.. [!]

____________________________________________


Tuning: EADG


Keys:

| x: Mute
| ~: Let Ring
| /: Slide Up
| \: Slide Down
| h: Hammer On
| p: Pull Off


Tracks:


1. Evoluciona
2. Misis Guiñi
3. Mateo 
4. Prendan La Radio
5. El Puñal
6. Perfect
7. Tiempo
8. Patriota
9. Newfastcar
10. Mucho Humo
11. No Te Compro
12. Kaguasaki
13. Ay Hey Chobi
14. Señora Ester
15. Somos Iguales
16. Primitivo
17. Idiotas
18. Nunca Olvidaremos
19. Aceptar


___________________________________________________-

1.

++++++++++++++++++++++
| Tronic- Evoluciona |
++++++++++++++++++++++


"La distancia no nos separa porque tu estás en mi..."

Tuning: EADG


Intro
1.
G|-------------------------------|
D|-55--55-55--55-55--55----3--3--|
A|----------------------3-5--3-3-|
E|-------------------------------|

2.
G|-------------------------3-3-5-7---|
D|-55--55-55--55-55--55-3-5-------55-|
A|-----------------------------------|
E|-----------------------------------|

Verse
"Como evitar el hablar de nosotros..."
3.
G|------------------------------------|
D|--------------------------55555555~-|
A|------------------------------------|--x2
E|------------------------------------|

"Me pongo a reir al pensar..."
4.
G|-------------------------------|
D|-55--55-55--55-55--55----3--3--|
A|----------------------3-5--3-3-|
E|-------------------------------|

"Mejor olvidar y pensar..."
5.
G|------------------------------|
D|-55--55-55--55-55--55-5555555-|
A|------------------------------|
E|------------------------------|

Pre-Chorus
"Yo no sé si tu sabes bien de mi..."
6.
G|-------------------------------------|
D|-11111111\55555553-11111111\88888888-|
A|-------------------------------------|
E|-------------------------------------|

"No preocupes, yo te voi a salvar..."
7.
G|-------------------------------------|
D|-11111111----------55555555-11111111-|
A|----------33333333-------------------|
E|-------------------------------------|

Chorus
"La distancia no nos separa..."
8.
G|---------------------------------------|
D|---------------------------------------|
A|-11111111-111\55555-33333333-333333-55-|
E|---------------------------------------|

"Porque tu estás en mi..."
9.
G|-------------------------------------|
D|-------------------------------------|
A|-66666666-66663333-11111111-11111111-|
E|-------------------------------------|

"No te das cuenta, ya me encontraste..."
10.
G|---------------------------------------|
D|---------------------------------------|
A|-11111111-111\55555-33333333-333333-55-|
E|---------------------------------------|

"Disfrutame, voi a morir..."
11.
G|----------------------------33333333-|
D|-------------------------------------|
A|-66666666-66663333-11111111----------|
E|-------------------------------------|

Verse
"No es facil crear..."
12.
G|------------------------------------|
D|--------------------------55555555~-|
A|------------------------------------|--x2
E|------------------------------------|

"Si tu tirai mierda..."
13.
G|-------------------------------|
D|-55--55-55--55-55--55----3--3--|
A|----------------------3-5--3-3-|
E|-------------------------------|

"Evoluciona, el pasado no existe..."
14.
G|------------------------------|
D|-55--55-55--55-55--55-5555555-|
A|------------------------------|
E|------------------------------|

Pre-Chorus
"Yo no se si yo sé mucho de ti..."
15.
G|-------------------------------------|
D|-11111111\55555553-11111111\88888888-|
A|-------------------------------------|
E|-------------------------------------|

"No preocupes, no conosco el rencor..."
16.
G|-------------------------------------|
D|-11111111----------55555555-11111111-|
A|----------33333333-------------------|
E|-------------------------------------|

Chorus
"La distancia no nos separa..."
17.
G|---------------------------------------|
D|---------------------------------------|
A|-11111111-111\55555-33333333-333333-55-|
E|---------------------------------------|

"Porque tu estas en mi..."
18.
G|-------------------------------------|
D|-------------------------------------|
A|-66666666-66663333-11111111-11111111-|
E|-------------------------------------|

"No te das cuenta, ya me encontraste..."
19.
G|---------------------------------------|
D|---------------------------------------|
A|-11111111-111\55555-33333333-333333-55-|
E|---------------------------------------|

"Disfrutame, voi a morir..."
20.
G|-------------------------------------|
D|-------------------------------------|
A|-66666666-66663333-11111111-11111111-|
E|-------------------------------------|

"No te preocupes, no estoy mintiendo..."
21.
G|---------------------------------------|
D|---------------------------------------|
A|-11111111-111\55555-33333333-333333-55-|
E|---------------------------------------|

"Si muero, muero feliz..."
22.
G|----------------------------33333333-|
D|-------------------------------------|
A|-66666666-66663333-11111111----------|
E|-------------------------------------|

Outro
23.
G|-------------------------------|
D|-55--55-55--55-55--55----3--3--|
A|----------------------3-5--3-3-|
E|-------------------------------|

24.
G|-------------------------3-3-5-7---|
D|-55--55-55--55-55--55-3-5-------55-|
A|-----------------------------------|
E|-----------------------------------|


Lyrics:


Como evitar el hablar de nosotros?
Como creer en Dios, si nos mata
Me pongo a reir al pensar
Lo que queremos, hacemos
Mejor olvidar y pensar en lo nuevo

Yo no sé si tu sabes bien de mi
No preocupes, yo te voi a salvar

La distancia no nos separa
Porque tu estás en mi
No te das cuenta, ya me encontraste
Disfrutame, voi a morir

No es facil crear cuando todo se cae
Mejor olvidar y empezar algo nuevo
Si tu tirai mierda, no te quejes
Cuando todos te caguen
Evoluciona, el pasado no existe

Yo no sé si yo se mucho de ti
No preocupes, no conosko el rencor

No te preocupes, no estoy mintiendo
Si muero, muero feliz

______________________________________________

2.

+++++++++++++++++++++++
| Tronic- Misis Guiñi |
+++++++++++++++++++++++


"Siempre nos pasan cosas distintas..."

Tuning: EADG


Verse
"Cada dia no es igual..."
1.
G|------------------------------------------|
D|-----------5~---6~--------------5~---6~---|
A|-3~---1x-------------33x---1x-------------|
E|------------------------------------------|

"Productos para el hogar..."
2.
G|-------------------------------------|
D|-------------------------------------|
A|-33333333-11111111-------------------|--x2
E|-------------------33333333-44444444-|

Chorus
"Oigia Misis Guiñi..."
3.
G|--------------------------------------------------------------------------|
D|--------------------------------------------------------------------------|
A|-----------------3-1-1111111-11111111-------------------------------------|
E|--------------------------------------33333333-33333333-44444444-44444444-|

"Esto hijo mio lo hago para engañar..."
4.
G|--------------------------------------------------------------------------|
D|--------------------------------------------------------------------------|
A|-----------------3-1-1111111-11111111----------------------------11111111-|
E|-44444444-444x------------------------33333333-33333333-11111111----------|

Verse
"Que loca la situación..."
5.
G|-------------------------------------|
D|-------------------------------------|
A|-33333333-11111111-------------------|--x2
E|-------------------33333333-44444444-|

Pre-Chorus
"Hay que ponerle atención..."
6.
G|---------------|
D|-5~-----6~-----|
A|---------------|
E|---------------|

Chorus
"Oigia Misis Guiñi..."
7.
G|--------------------------------------------------------------------------|
D|--------------------------------------------------------------------------|
A|-----------------3-1-1111111-11111111-------------------------------------|
E|--------------------------------------33333333-33333333-44444444-44444444-|

"Esto hijo mio lo hago para engañar..."
8.
G|--------------------------------------------------------------------------|
D|--------------------------------------------------------------------------|
A|-----------------3-1-1111111-11111111----------------------------11111111-|
E|-44444444-444x------------------------33333333-33333333-11111111----------|

Outro
"Treinta mil al mes..."  
9.                                               
G|----------------------------------------|
D|----------------3-1-0-11--1-1----33-3-3-|
A|-33--3-3----55--------------------------|
E|----------------------------------------|

Bridge
10.                                    
G|-------------------------------------------------------------------------|
D|-------------------------------------11111111-11111111-33333333-33333333-|
A|-33333333-33333333-11111111-11111111-------------------------------------|
E|-------------------------------------------------------------------------|

11.
G|-------------------------|
D|-5~----3~----1~----0x----|
A|-------------------------|
E|-------------------------|

Chorus
"Oigia Misis Guiñi..."
12.
G|--------------------------------------------------------------------------|
D|--------------------------------------------------------------------------|
A|-----------------3-1-1111111-11111111-------------------------------------|
E|-44444444-444x------------------------33333333-33333333-44444444-44444444-|

"Esto hijo mio lo hago para engañar..."
13.
G|--------------------------------------------------------------------------|
D|--------------------------------------------------------------------------|
A|-----------------3-1-1111111-11111111----------------------------11111111-|
E|-44444444-444x------------------------33333333-33333333-11111111----------|

Outro
"Treinta mil al mes..."
14.
G|-------------------------------------------------------------------------|
D|-------------------------------------------------------------------------|
A|-33333333-------------------11111111-33333333-------------------11111111-|
E|----------33333333-44444444-------------------33333333-11111111----------|

15.
G|-----------------------|
D|-----------------------|
A|-3~--------------------|
E|-----------------------|


Lyrics:


Cada día no es igual
Siempre nos pasan cosas distintas
Estabamos comprando pan 
Y una señora guarda en su cartera
Productos para el hogar
Salsa de soya, pollo y siete paltas
Nada de esto iba a pagar
Ella se veía decidida

Oiga Misis Guiñi porque robó usted
Le pregunte
Por su aparencia usted se ve de gran nivel
Esto hijo mio lo hago para engañar
Y asi poder robar mi jubilación me pagan 30 mil

Que loca la situación
Pobre señora Misis Guiñi
No le queda otra opción
Se disfraza como vieja cuica
Al super le roba un monton
En caja paga un kilo de harina
Esto de la jubilación,
Hay que ponerle atensión


___________________________________________

3.

+++++++++++++++++
| Tronic- Mateo |
+++++++++++++++++


"La prueba contesté, sin haber estudiado, un siete me saqué..."

Tuning: EADG


Un dos tres cuatro!!

Verse
"Hoy me desperte tarde y no desayuné..."
1.
G|--------------------------------|
D|--------------------------------|
A|------------6666-1111-------531-|--x2
E|-33x------------------3333-3----|

Pre-Chorus
"Un curaito que me ayudó a volver..."
2.
G|----------------------------------------|
D|----------------------------------------|
A|---3----5----3----5---------3-----------|
E|-11-1/33-3-11-1-33-3-1111-11-1-33333333-|

Chorus
"Oh, la prueba terminó..."
3.
G|-------------------------------------------|
D|-------------------------------------------|
A|-6666-1111-----------6666-1111-------------|
E|-----------3333-3333-----------3333-5h6p5~-|

"Oh, no supe que decir..."
4.
G|-----------------------------------------|
D|-----------------------------------------|
A|-6666-1111-----------6666-1111-----------|
E|-----------3333-3333-----------3333-3333-|

Verse
"Y cuando yo llegué me puse a ahblar con el..."
5.
G|--------------------------------|
D|--------------------------------|
A|------------6666-1111-------531-|--x2
E|-33x------------------3333-3----|

Pre-Chorus
"El me reconoció y el pituto nació..."
6.
G|----------------------------------------|
D|----------------------------------------|
A|---3----5----3----5---------3-----------|
E|-11-1/33-3-11-1-33-3-1111-11-1-33333333-|

Chorus
"Oh, la profe se enojó..."
7.
G|--------------------------3333-------------|
D|-------------------------------------------|
A|-6666-1111-----------6666------------------|
E|-----------3333-3333-----------3333-5h6p5~-|

"Oh, la prueba contesté..."
8.
G|-----------------------------------------|
D|-----------------------------------------|
A|-6666-1111-----------6666-1111-----------|
E|-----------3333-3333-----------3333-3333-|

Bridge
9.
G|-------------------------------------------------|
D|-------------------------------------------------|
A|----656-11-313--------------656-11-313-1111-5588-|
E|-33------------3333-3333-33----------------------|

10.
G|-------------------------------------------------------------------|
D|-------------------------------------------------------------------|
A|----656-11-313--------------656-11-313-3333-3333-5555-5555-7799-5x-|
E|-33------------3333-3333-33----------------------------------------|

Chorus
"Oh, la prueba terminó..."
11.
G|-------------------------------------|
D|-----------------7h9p7---------------|
A|-6--6--1--1------------6--6--1--1----|
E|------------3--3------------------3x-|

"Oh, la profe se enojó..."
12.
G|--------------------------3333-------------|
D|-------------------------------------------|
A|-6666-1111-----------6666------------------|
E|-----------3333-3333-----------3333-5h6p5~-|

"Oh, la prueba contesté..."
13.
G|-----------------------------------------|
D|-----------------------------------------|
A|-6666-1111-----------6666-1111-----------|
E|-----------3333-3333-----------3333-3333-|


Lyrics:


Un dos tres cuatro!

Hoy me desperté tarde y no desayuné
Tomé la micro, me dormí y a Pudahuel llegué
Quedé botao y plata no tenía pa volver
Me puse a caminar y en la esquina me encontré
Un curaito que me ayudó a volver
Tarde pero iwal llegué

Oh, la prueba terminó, la profe me pedía una justificación
Oh, no supe que decir y me mandó directo a la oficina del rector

Y cuando yo llegué me puse a hablar con el
Tenía algo que me parecía familiar
Me puse a pensar y entonces recordé
Que mi papa jugaba a la pelota con el
El me reconoció y el pituto nació
'No hay problema, hijo mío vuelva al salón'

Oh, la profe se enojó, ya no nesesitaba la justifikasión
Oh, la prueba contesté, sin haber estudiado, un siete me saqué

______________________________________________

4.

++++++++++++++++++++++++++++
| Tronic- Prendan La Radio |
++++++++++++++++++++++++++++


"Un gran incendio los quemará, ni su puto seguro los salvará..."

Tuning: EADG


Intro
1.
G|-------------------------------------|
D|-------------------------------------|
A|-------------------------------------|
E|-11111111-11111111/66666666-88888888-|

2.
G|-------------------------------------|
D|-------------------------------------|
A|-88888888-88888888\11111111-33333333-|
E|-------------------------------------|

Verse
"Apaguen la tele, prendan la radio..."
3.
G|-------------------------------------|
D|-------------------------------------|
A|-------------------------------------|
E|-11111111-11111111/66666666-88888888-|

"Solo dicen mentiras y fribolidades..."
4.
G|-------------------------------------|
D|-------------------------------------|
A|-88888888-88888888\11111111-33333333-|
E|-------------------------------------|

5.
G|-------------------------------------|
D|-------------------------------------|
A|-------------------------------------|
E|-11111111-11111111/66666666-88888888-|

"Para comer bien hay que trabajar arto..."
6.
G|-------------------------------------|
D|-------------------------------------|
A|-------------------11111111-33333333-|
E|-11111111-11111111-------------------|

"No queremos dinero, queremos que el medio..."
7.
G|-------------------------------------|
D|-33333333-55533333-------------------|
A|-------------------11111111-33333333-|
E|-------------------------------------|

"Es mejor preocuparte de tu propia familia..."
8.
G|-------------------------------------|
D|-------------------------------------|
A|-55555555-55555555\11111111-33333333-|
E|-------------------------------------|

Chorus
"Los que se ganan la vida..."
9.
G|-------------------------------------------------------------------------|
D|-------------------------------------------------------------------------|
A|-55555555-55555555-------------------88888888-88888888-33333333-33333333-|
E|-------------------66666666-66666666-------------------------------------|

"Los que le mienten al país..."
10.
G|-------------------------------------------------------------------------|
D|-33333333-55533333-------------------------------------------------------|
A|-------------------------------------55555555-55555555-33333333-33333333-|
E|-------------------66666666-66666666-------------------------------------|

Verse
"Despierten amigos que no los engañen..."
11.
G|-------------------------------------|
D|-------------------------------------|
A|-------------------11111111-33333333-|
E|-11111111-11111111-------------------|

"Recuerden que la derecha nos ha robado..."
12.
G|-------------------------------------|
D|-33333333-55533333-------------------|
A|-------------------11111111-33333333-|
E|-------------------------------------|

"Da lo mismo el partido del candidato..."
13.
G|-------------------------------------|
D|-------------------------------------|
A|-55555555-55555555\11111111-33333333-|
E|-------------------------------------|

Chorus
"Los que se ganan la vida..."
14.
G|-------------------------------------------------------------------------|
D|-------------------------------------------------------------------------|
A|-55555555-55555555-------------------88888888-88888888-33333333-33333333-|
E|-------------------66666666-66666666-------------------------------------|

"Los que le mienten al país..."
15.
G|-------------------------------------------------------------------------|
D|-33333333-55533333-------------------------------------------------------|
A|-------------------------------------55555555-55555555-33333333-33333333-|
E|-------------------66666666-66666666-------------------------------------|

Outro
"Rigo..."
16.
G|-------------------------------------|
D|-------------------------------------|
A|-88888888-88888888\11111111-33333333-|--x2
E|-------------------------------------|

15.
G|-------------------------------------|
D|-------------------------------------|
A|-55555555-55555555\11111111-33333333-|
E|-------------------------------------|

Chorus
"Los que se ganan la vida..."
16.
G|-------------------------------------------------------------------------|
D|-------------------------------------------------------------------------|
A|-55555555-55555555-------------------88888888-88888888-33333333-33333333-|
E|-------------------66666666-66666666-------------------------------------|

"Los que le mienten al país..."
17.
G|-------------------------------------------------------------------------|
D|-33333333-55533333-------------------------------------------------------|
A|-------------------------------------55555555-55555555-33333333-33333333-|
E|-------------------66666666-66666666-------------------------------------|


Lyrics:


Apaguen la tele, prendan la radio
Aburridos estamos de todos los diarios
Solo dicen mentiras y fribolidades
Mostrando tetas hacen ventas mas grandes

Para comer bien hay que trabajar arto
Y para disfrutar hay que cantar muy alto
No queremos dinero, queremos que el medio
Entienda que lo de adentro es lo mas importante
Es mejor preocuparte de tu propia familia
Y si no la tienes, de tu propia vida

Los que se ganan la vida
Hablando mal de los demas
No se imaginan que al final
En su propia mierda se ahogarán
Los que le mienten al país
Publicando lo que les conviene decir
Un gran incendio los quemará
Ni su puto seguro los salvará

Despierten amigos que no los engañen
Pronto, pronto se vienen las precidenciales
Recuerden que la derecha nos ha robado
Y tambien la izquierda ha coñado
Da lo mismo el partido del candidato
Importa mas que sea un buen ser humano

Rigo
Carlitos
Chavin
Ciro 

___________________________________________

5.

++++++++++++++++++++
| Tronic- El Puñal |
++++++++++++++++++++


"Andan en sus autos caros, se creen superstars..."

Tuning: EADG


Verse
"Se ven bien y por dentro estan mas que podridos..."
1.
G|-------------------------------------------------------------------------|
D|-55555555-55555555-------------------------------------00000000-22224444-|
A|-------------------22222222-22222222-33333333-33333333-------------------|
E|-------------------------------------------------------------------------|

"No saben lo que es tener un verdadero amigo..."
2.
G|-------------------------------------------------------------------------|
D|-55555555-55555775-------------------------------------------------------|
A|-------------------22222222-22222222-33333333-33333333-5555555-3-3--2-2--|
E|-------------------------------------------------------------------------|

Pre-Chorus
"No se dan cuenta..."
3.
G|-------------------------------------------------|
D|-------------------------------------------------|
A|-5~----------------------------55555555-55555555-|
E|-------------------------------------------------|

Verse
"Se sienten con poder..."
4.
G|-------------------------------------------------------------------------|
D|-55555555-55555775-------------------------------------00000000-22224444-|
A|-------------------22222222-22222222-33333333-33333333-------------------|
E|-------------------------------------------------------------------------|

"Obligan a sus hijos..."
5.
G|-------------------------------------------------------------------------|
D|-55555555-55555775-------------------------------------------------------|
A|-------------------22222222-22222222-33333333-33333333-5555555-3-3--2-2--|
E|-------------------------------------------------------------------------|

Pre-Chorus
"No se imaginan..."
6.
G|-------------------------------------------------|
D|-------------------------------------------------|
A|-5~----------------------------55555555-55555555-|
E|-------------------------------------------------|

Chorus
"Se preguntan porque no pueden dormir..."
7.
G|-------------------------------------------------------------------------|
D|-22222222----------55555555-44444444-22222222----------------------------|
A|----------33333333----------------------------33333333----------22222222-|
E|-------------------------------------------------------33333333----------|

"Presumen de sus autos caros..."
8.
G|-------------------------------------------------------------------------|
D|-22222222----------55555555----------22222222----------------------------|
A|----------33333333----------22222222----------33333333-55555555-55555555-|
E|-------------------------------------------------------------------------|

Outro
9.
G|-------------------------------------------------------------------------|
D|-55555555-55555555-------------------------------------00000000-22224444-|
A|-------------------22222222-22222222-33333333-33333333-------------------|
E|-------------------------------------------------------------------------|

Bridge
"Soledad y traición tendran por codiciosos..."
10.
G|-------------------------------------------------------------------------|
D|-55555555-55555775-------------------------------------------------------|
A|-------------------22222222-22222222-33333333-33333333-5555555-3-3--2-2--|
E|-------------------------------------------------------------------------|

Pre-Corus
"No se dan cuenta..."
11.
G|-------------------------------------------------------------------------------|
D|-------------------------------------------------------------------------------|
A|-5~--------------------9\2~--------3~--------5-5-5-5-5-5-5-5-55555555-55555555-|
E|-------------------------------------------------------------------------------|

Chorus
"Se preguntan porque no pueden dormir..."
12.
G|-------------------------------------------------------------------------|
D|-22222222----------55555555-44444444-22222222----------------------------|
A|----------33333333----------------------------33333333----------22222222-|
E|-------------------------------------------------------33333333----------|

"Presumen de sus autos caros..."
13.
G|-------------------------------------------------------------------------|
D|-22222222----------55555555----------22222222----------------------------|
A|----------33333333----------22222222----------33333333-55555555-55555555-|
E|-------------------------------------------------------------------------|

"Y se preguntan porque no pueden dormir..."
14.                                        
G|-------------------------------------------------------------------------|
D|-55555555----------------------------55555555----------------------------|
A|----------33333333-55555555-55555555----------33333333-55555555-5~--6~---|
E|-------------------------------------------------------------------------|

"Andan en sus autos caros..."
15.
G|-------------------------------------------------------------------------|
D|-22222222----------------------------22222222----------------------------|
A|----------33333333----------22222222----------33333333-55555555-55555555-|
E|-------------------33333333----------------------------------------------|

Outro
16.
G|-------------------------------------------------------------------------|
D|-55555555----------------------------55555555----------------------------|
A|----------33333333-55555555-55555555----------33333333-55555555-55555555-|
E|-------------------------------------------------------------------------|

17.
G|-------------------------------------------------------------------------|
D|-5~----------------------------------5~----------------------------------|
A|----------3~-------5~----------------------------------------------------|
E|-------------------------------------------------------------------------|


Lyrics:


Se ven bien y por dentro están mas que podridos
No saben lo que es tener un verdadero amigo
No se dan cuenta, esclavos son de su aparicia
Se sienten con poder y abusan de los pobres
Obligan a sus hijos hacer lo que no quieren
No se imaginan que su mujer esta con otro

Se preguntan porque no pueden dormir
Si tratan al obrero como un animal
Presumen de sus autos caros, se creen superstars
Son los ambiciosos de nuestro pais

Soledad y traicion tendrán por codiciosos
No se dan cuenta, esclavos son de su aparicia
No se imaginan que su mujer esta con otro

Y se preguntan porque no pueden dormir
Si tratan al obrero como un animal
Andan en sus autos caros, se creen superstars
Son los ambiciosos de nuestro pais

______________________________________________

6.

+++++++++++++++++++
| Tronic- Perfect |
+++++++++++++++++++


"No temas mas, arriésgate..."

Tuning: EADG


Intro
1.
G|---------------------------------|
D|---------------------------------|
A|-------2-------2-------2-------2-|
E|-3-3-3---3-3-3---3-3-3---3-3-3---|

Verse
"Yo no quiero estar nunca mas así..."
2.
G|-------------------------------------------------------|
D|-------------------------------------------------------|
A|-33333333-33333333-22222222/77777777-00000000-00000000-|
E|-------------------------------------------------------|

"Queremos entregar, queremos aportar..."
3.
G|-------------------------------------------------------|
D|-------------------------------------------------------|
A|-33333333-33333333-22222222/77777777-00000000-00000000-|
E|-------------------------------------------------------|

Pre-Chorus
"Aventurar es bueno..."
4.
G|-------------|
D|-------------|
A|-3~----3~----|
E|-------------|

Chorus
"No temas mas, arriésgate..."
5.
G|-------------------------------------------------------------------------|
D|-55555555-55555555-44444444-44774444-22222222-00000000-------------------|
A|-------------------------------------------------------33333333-33333333-|
E|-------------------------------------------------------------------------|

Outro
"Atrévete a empezar..."
6.
G|-----------------|
D|-----------------|
A|-55-77-5555-5555-|
E|-----------------|

Verse
"La otra noche yo pude observar..."
7.
G|-------------------------------------------------------|
D|-------------------------------------------------------|
A|-33333333-33333333-22222222/77777777-00000000-00000000-|
E|-------------------------------------------------------|

"Regalaban te, regalaban pan..."
8.
G|-------------------------------------------------------|
D|-------------------------------------------------------|
A|-33333333-33333333-22222222/77777777-00000000-00000000-|
E|-------------------------------------------------------|

Pre-Chorus
"Todavía hay heroes..."
9.
G|-------------|
D|-------------|
A|-3~----3~----|
E|-------------|

Chorus
"Ayudar te arreglará..."
10.
G|-------------------------------------------------------------------------|
D|-55555555-55555555-44444444-44774444-22222222-00000000-------------------|
A|-------------------------------------------------------33333333-33333333-|--x2
E|-------------------------------------------------------------------------|

Outro
"No lo pienses mas..."
11.
G|-----------------|
D|-----------------|
A|-55-77-5555-5555-|
E|-----------------|

"No lo pienses, no lo pienses..."
12.
G|---------------------------------|
D|------------------------55555555-|
A|---------------33333333----------|--x3
E|-00x----22x----------------------|

13.
G|------------------------------------------------------|
D|------------------------------------------------------|
A|-55555555-7777999977777777-77777777-33333333-33333333-|
E|------------------------------------------------------|

14.
G|--------------------------------------------|
D|----------22224444-5~-----------------------|
A|-55555555--------------------------5~----3~-|
E|-----------------------------3~-------------|

Chorus
"Ayudar te arreglará..."  
15.
G|-------------------------------------------------------------------------|
D|-55555555-55555555-44444444-44774444-22222222-00000000-------------------|
A|-------------------------------------------------------33333333-33333333-|
E|-------------------------------------------------------------------------|

"Atrevete a empezar, así lo lograrás..."
16.
G|-------------------------------------|
D|-------------------------------------|
A|-55555555-77777777-22222222-77777777-|
E|-------------------------------------|

"Creyendo en ti seras mas fuerte..."
17.
G|-------------------------------------|
D|-------------------------------------|
A|-33333333-33333333-55555555-55555555-|
E|-------------------------------------|

Outro
18.
G|------------------------------------|
D|------------------------------------|
A|-------2-------2-------2-------2----|
E|-3-3-3---3-3-3---3-3-3---3-3-3---3~-|


Lyrics:


Yo no quiero estar nunca mas asi
Sentirse solo pone triste
Queremos entregar, queremos aportar
Al unirnos mas avanzaremos
Aventurar es bueno

No temas mas, arriésgate
Cree en ti te hará mas fuerte
Atrévete a empezar

La otra noche yo pude observar
Gente alimentando indigentes
Regalaban te, regalaban pan
Y esperando nada a cambio
Todavia hay heroes

Ayudar te arreglará
La vida se te hará mas perfect
No temas mas, arriésgate
Cree en ti te hará mas fuerte
No lo pienses mas

Creyendo en ti
Serás mas fuerte

________________________________________________

7.

++++++++++++++++++
| Tronic- Tiempo |
++++++++++++++++++


No Bass


_____________________________________________________-

8.

++++++++++++++++++++
| Tronic- Patriota |
++++++++++++++++++++


"Que canten y escriban sin importar si venderan..."

Tuning: EADG


Intro
1.
G|---------------------------------------------------|
D|---------------------------------------------------|
A|----------4~----------4------------4~----------4---|
E|--55--55------55--55----5--55--55------55--55----5-|

Verse
"Tenemos cordillera, desierto y mucho mar..."
2.
G|--------------------------------------|
D|-----77777777-77777777-66666666-------|
A|-5-7----------------------------5-7---|
E|--------------------------------------|

Pre-Chorus
"Amigo chileno..."
3.
G|---------------------------------|
D|-444-------------444-------------|
A|-----555-----777-----555-----777-|
E|---------555-------------555-----|

"Falta patriotismo..."
4.
G|-------------------------------------------------------|
D|-44x---------------------------------------------------|
A|------55x-------777-44444444-44444444-22222222-5-5-5-5-|
E|-----------5-5-----------------------------------------|

Chorus
"Hechamos demenos..."
5.
G|-------------------------------------------------------------------------|
D|-------------------44444444----------------------------44444444----------|
A|----------55555555----------55555555----------55555555----------55555555-|
E|-55555555----------------------------55555555----------------------------|

Outro
6.
G|---------------------------------------------------|
D|---------------------------------------------------|
A|----------4~----------4------------4~----------4---|
E|--55--55------55--55----5--55--55------55--55----5-|

Verse
"Siempre la gente imitando lo que no es nacional..."
7.
G|--------------------------------------|
D|-----77777777-77777777-66666666-------|
A|-5-7----------------------------5-7---|
E|--------------------------------------|

Pre-Chorus
"Amigo chileno..."
8.
G|---------------------------------|
D|-444-------------444-------------|
A|-----555-----777-----555-----777-|
E|---------555-------------555-----|

"Falta patriotismo..."
9.
G|-------------------------------------------------------|
D|-44x---------------------------------------------------|
A|------55x-------777-44444444-44444444-22222222-5-5-5-5-|
E|-----------5-5-----------------------------------------|

Chorus
"Hechamos demenos..."
10.
G|-------------------------------------------------------------------------|
D|-------------------44444444----------------------------44444444-4--------|
A|----------55555555----------55555555----------55555555-----------5~------|
E|-55555555----------------------------55555555----------------------------|

"Don Richi..."
11.
G|-------------------------------------------------------------------------|
D|-------------------44444444----------------------------44444444-66666666-|
A|----------55555555----------55555555----------55555555-------------------|
E|-55555555----------------------------55555555----------------------------|

Bridge
12.
G|-------------------------------------------------------------------------|
D|-------------------------------------------------------------------------|
A|-55555555-55555555-44444444-44444444-------------------55555555-55555555-|
E|-------------------------------------22222222-55555555-------------------|

13.
G|-------------------------------------------------------------------------|
D|-------------------------7-----------------------------------------------|
A|-77777777-77777777-999999---77777777-55555555-55555555--9-9-9--7-7-7-----|
E|-------------------------------------------------------------------------|

14.
G|-----------------------|
D|-----------------------|
A|----------4------------|
E|--55--55----5--55--55x-|

Chorus
"Hechamos demenos..."
15.
G|-------------------------------------------------------------------------|
D|-------------------44444444----------------------------44444444----------|
A|----------55555555----------55555555----------55555555----------55555555-|
E|-55555555----------------------------55555555----------------------------|

"Don Richi..."
16.
G|-------------------------------------------------------------------------|
D|-------------------44444444----------------------------44444444-44444444-|
A|----------55555555----------55555555----------55555555-------------------|
E|-55555555----------------------------55555555----------------------------|

Outro
17.
G|--------------------------|
D|--------------------------|
A|----------4~----------4---|
E|--55--55------55--55----5-|


Lyrics:


Cansao estoy de escuchar que todo, todo esta mal
Tenemos cordillera, desierto y mucho mar
Un tenista mundial, un futbolista bacan
Y poetas que escriben sobre lo nacional

Amigo chileno
Porque siempre prefieres
Todo lo que sea extranjero
Falta patriotismo
Y menos cinismo
Creerse el cuento
Esta rebueno

Hechamos demenos artistas de verdad
Que canten y escriban sin importar si venderan

Inventar no es copiar, falta creatividad
Siempre la gente imitando lo que no es nacional
Necesitamos unión y solidificasión
Haciendo bien el trabajo te irá mejor

Don Richi, Don Nica
Y la señora Mistral
Ganaron respeto
De nuestra nueva sociedad

_________________________________________________________

9.

++++++++++++++++++++++
| Tronic- Newfastcar |
++++++++++++++++++++++


"Las plazas de la pampa van mirando la mañana..."

Tuning: EADG


Verse
"Que que que que sucede..."
1.
G|-------------------------------------|
D|-------------------------------------|
A|-111-333-1111-3333-111-333-1111-3333-|
E|-------------------------------------|

"Que no viene al cuento..."
2.
G|-------------------------------------|
D|-------------------------------------|
A|-111-333-1111-3333-111-333-5555-7777-|
E|-------------------------------------|

Chorus
"No no no no, eso no..."
3.
G|-------------------------------------------------|
D|-33333-22222-00000-------------------------------|
A|-------------------33333-11111-00000-------33333-|--x2
E|-------------------------------------33333-------|

"Eso es..." 
4.
G|-------------------------|
D|-------------------------|
A|-11111-00000-------33333-|
E|-------------33333-------|

"Poder volver a ver..."
5.
G|--------------------------------------------------------------------|
D|--------------------------------------------------------------------|
A|-1111111111111111-000000000000000-----------------------------------|
E|----------------------------------3333333333333333-3333333333333333-|

Verse
"Que que que que sucede..."
6.
G|-------------------------------------|
D|-------------------------------------|
A|-111-333-1111-3333-111-333-1111-3333-|
E|-------------------------------------|

"Que no viene al cuento..."
7.
G|-------------------------------------|
D|-------------------------------------|
A|-111-333-1111-3333-111-333-5555-7777-|
E|-------------------------------------|

Chorus
"Las plazas de la pampa..."
8.
G|-------------------------------------------------|
D|-33333-22222-00000-------------------------------|
A|-------------------33333-11111-00000-------33333-|--x2
E|-------------------------------------33333-------|

"Eso es..."
9.
G|-------------------------|
D|-------------------------|
A|-11111-00000-------33333-|
E|-------------33333-------|

"Poder volver a ver..."
10.
G|---------------------------------------------------|
D|---------------------------------------------------|
A|-1111111111111111-000000000000000------------------|--x2
E|----------------------------------3333333333333333-|

Bridge
11.
G|--------------------------------------------------------------------|
D|--------------------------------------------------------------------|
A|-1111111111111111-000000000000000-----------------------------------|
E|----------------------------------3333333333333333-3333333333333333-|

Outro
"Wuaaa..."
12.
G|-------------------------------------|
D|-------------------------------------|
A|-111-333-1111-3333-111-333-1111-3333-|
E|-------------------------------------|

"Que que que que sucede..."
13.
G|---------------------------3333-5555-3x-|
D|----------------------------------------|
A|-111-333-1111-3333-111-333--------------|
E|----------------------------------------|


Lyrics:


Que sucede cuando nada duele
Que pasa con las balas bajas
Que no viene al cuento el dolor del pueblo
Que la vida pasa por los cuatro tiempos

No no no no
Eso no es una que no suma ninguna en esta fortuna
En la senda del deber, sin querer aparecer
Es amor por los conversos, ser todos tus rezos
Eso es poder volver a ver

Las plazas de la pampa van mirando la mañana
En los cuatro clandestinos, en los trajes de los niños
En las tibias pasajeras de las playas de la tierra
El romance con el vino 
Con los cuatro tiempos
Eso es poder volver a ver

_______________________________________________________

10.

++++++++++++++++++++++
| Tronic- Mucho Humo |
++++++++++++++++++++++


"Con la del Diablo por la vereda te podemos atrapar..."

Tuning: EADG


Verse
"Mucho humo en la discotec..."
1.
G|----------------------------------------|
D|------1111---------------------55555755-|
A|-3333----------------3333-5555----------|
E|-----------3333-5555--------------------|

"Buscamos chicas..."
2.
G|----------------------------------------|
D|------1111------------------------------|
A|-3333----------------3333-5555----------|
E|-----------3333-5555-----------33333333-|

Pre-Chorus
"Y por las noches nos transformamos..."
3.
G|-----------------------------------------|
D|-----------------------------------------|
A|------1111-5555-6666-6666-5555-33333-333-|
E|-5555------------------------------------|

"Con la del diablo por la vereda..."
4.
G|------------------------------------------------------------|
D|------------------------------------------------------------|
A|--------11x---155x---566x---666x---655x---533333333-55555\0-|
E|-55x---5----------------------------------------------------|

Chorus
"Si tu queris venir conmigo..."
5.
G|-----------------------------------------------------------------------------------|
D|-------------------22222222----------------------------22222222--------------------|
A|----------55555555----------33333333----------55555555----------33333333-3333-5555-|
E|-33333333----------------------------33333333--------------------------------------|

[Supongo ke tomai pastillas..]
6.
G|----------------------------------------------------------|
D|------------------------2222222222------------------------|
A|------------55555555555------------3333333333-33333-55555-|
E|-3333333333-----------------------------------------------|

Verse
"Te estoy dando, te estoy dando..."
7.
G|----------------------------------------|
D|------1111---------------------55555755-|
A|-3333----------------3333-5555----------|
E|-----------3333-5555--------------------|

"Ahora mierda la metralleta..."
8.
G|----------------------------------------|
D|------1111------------------------------|
A|-3333----------------3333-5555----------|
E|-----------3333-5555-----------33333333-|

Pre-Chorus
"Ahora guachita si no acabaste..."
9.
G|-----------------------------------------|
D|-----------------------------------------|
A|------1111-5555-6666-6666-5555-33333-333-|
E|-5555------------------------------------|

"Si no te basta con mis amigos..."
10.
G|------------------------------------------------------------|
D|------------------------------------------------------------|
A|--------11x---155x---566x---666x---655x---533333333-55555\0-|
E|-55x---5----------------------------------------------------|

Chorus
"Si tu queris venir conmigo..."
11.
G|-------------------------------------------------------------------------|
D|-------------------22222222----------------------------22222222----------|
A|----------55555555----------33333333----------55555555----------33333333-|
E|-33333333----------------------------33333333----------------------------|

"Si tu queris venir conmigo..."
12.
G|--------------------------------------------------------------------------|
D|-------------------22222222-----------------------------------------------|
A|-33333333-55555555----------55555555-33333333-55555555-6666-5555-33333333-|
E|--------------------------------------------------------------------------|

Outro
"O a la farmacia hay que pasar
13.
G|----------------------------------------------------------|
D|-------------------------------------------------------5x-|
A|-6666-5555----------66666x--55555x--33333333-6666-5555----|
E|-----------33333333---------------------------------------|


Lyrics:


Te voi a embarazar...

Mucho humo en la discotec
Ya no quiero ir nunca mas
Buscamos chicas que sean distintas
Que nos kieran secotear

Y por las noches nos transformamos
Siempre queremos videar
Con la del Diablo por la vereda
Te podemos atrapar

Si tu queris venir conmigo
Te voy a dar un lion total
Supongo que tomai pastillas
O a la farmacia hay que pasar

Te estoy dando, te estoy dando
Disfrutando sin parar
Ahora mierda la metralleta
Mi caballo va a explotar

Ahora guachita si no acabaste
El spider se vendrá
Si no te basta con mis amigos
La triple te vamos a dar

_________________________________________________

11.

++++++++++++++++++++++++
| Tronic- No Te Compro |
++++++++++++++++++++++++


"No te compro ni la mitad de lo que tu me hablai..."

Tuning: EADG


No te kompro... Wuaa!!

Intro
1.
G|-----------------|
D|-----------------|
A|-----------------|
E|-5-5-5-5-6-6-6-6-|

Verse
"Me da risa escuchar..."
2.
G|---------------------------------------------------|
D|---------------------------------------------------|
A|---------------------------------------------------|
E|-11x--------55x----66x----11x--------55x----66x----|

"Mas piola ser así..."
3.
G|-------------------------------------|
D|-33333333-33553333-------------------|
A|-------------------------------------|--x2
E|-------------------55555555-66666666-|

Pre-Chorus
"Y si pensai que porque vo andai arreglao..."
4.
G|------------------------------------------------------|
D|------------------------------------------------------|
A|-33333333-00000000-11111111-33333333-00000000-1111111-|
E|------------------------------------------------------|

Chorus
"No te compro ni la mitad..."
5.
G|--------------------------------------------------|
D|--------------------------------------------------|
A|----------------3-333333-5555-7777-00-000--11-111-|--x2
E|-1-111111111111-----------------------------------|

Verse
"Me da rabia contestar..."
6.
G|-------------------------------------|
D|-33333333-33333333-------------------|
A|-------------------------------------|
E|-------------------55555555-66665555-|

"Escucheme señor yo no soy robot..."
7.
G|-------------------------------------|
D|-33333333-33333333-------------------|
A|-------------------------------------|
E|-------------------55555555-66666666-|

"Desde chico me enseñaron..."
8.
G|-------------------------------------|
D|-33333333-33553333-------------------|
A|-------------------------------------|--x2
E|-------------------55555555-66666666-|

Pre-Chorus
"Si demostrai que eres un ser materialista..."
9.
G|------------------------------------------------------|
D|------------------------------------------------------|
A|-33333333-00000000-11111111-33333333-00000000-1111111-|
E|------------------------------------------------------|

Chorus
"No te compro ni la mitad..."
10.
G|--------------------------------------------------|
D|--------------------------------------------------|
A|----------------3-333333-5555-7777-00-000--11-111-|--x2
E|-1-111111111111-----------------------------------|

Outro
"Usted señor es un farsante..."
11.
G|-------------------|
D|-------------------|
A|-33333333-33333333-|
E|-------------------|

Bridge
12.
G|-------------------------------------------------------------------------|
D|-------------------------------------------------------------------------|
A|-------------------------------------------------------------------------|
E|-66666666-66666666-55555555-55555555-33333333-33333333-11111111-11111111-|

13.
G|-------------------------------------------------------------------------|
D|-33333333-33333333-------------------------------------33333333-33333333-|
A|-------------------------------------------------------------------------|
E|-------------------55555555-55555555-33333333-33333333-------------------|

Chorus
"No te compro ni la mitad..."
14.
G|--------------------------------------------------|
D|--------------------------------------------------|
A|----------------3-333333-5555-7777-00-000--11-111-|
E|-1-111111111111-----------------------------------|

"Como se te puede ocurrir..."
15.
G|--------------------------------------------------|
D|--------------------------------------------------|
A|-----------------------------------00-000--11-111-|
E|--------------------------------------------------|

"No te compro ni la mitad..."
16.
G|-------------------------------------------------------------------------|
D|-------------------------------------------------------------------------|
A|-11111111-11111111-33333333-33333333-55555555-55555555-77777777-88887777-|
E|-------------------------------------------------------------------------|

"Cuando sientas humildad..."
17.
G|----------------------------------------|
D|----------------------------------------|
A|-11111111-11111111-33333333-33333333-8~-|
E|----------------------------------------|


Lyrics:


Me da risa escuchar
Esa gente que piensa que el que tiene mas
Es el superior
Mas piola ser así
Tranquilo y mas normal
Si queris conversar acercate nomas

Y si pensai que porque vo andai arreglao
Eres el mas correcto

No te compro ni la mitad
De lo que tu me hablai
Chucha que eres ignorante
Como se te puede ocurrir
Que porque yo me visto así
Voi a ser el ignorante

Me da rabia contestar
El telefono una grabación
Escucheme señor yo no soy robot
Desde chico me enseñaron
Que el respeto es primordial
Si usted me empuja a mi, quien es el roto aquí

Si demostrai que eres un ser materialista
No tienes intelectuo

No te compro ni la mitad
De lo que tu me hablai
El respeto me hace ser un ser pensante
Cuando sientas humildad
Todo se te arreglará

______________________________________________________-

12.

+++++++++++++++++++++
| Tronic- Kaguasaki |
+++++++++++++++++++++


"No importa el momento, no importa el lugar..."

Tuning: EADG


Verse
"No importa el momento..."
1.
G|--------------------------------------------------------------|
D|-------5~--------------------------5x---5x--------------------|
A|-2~----------5~----7~----2x---2x-------------5-5-5-5-77777777-|
E|--------------------------------------------------------------|

Chorus
"Kaguasaki in the mor..."
2.
G|-----------------------------------------|
D|------5555----------------5555-----------|
A|-2222------5555-7777-2222------5555-4444-|--x2
E|-----------------------------------------|

Verse
"La Meison nos ataca..."
3.
G|--------------------------------------------------------------|
D|-------5~--------------------------5x-------------------------|
A|-2~----------5~----7~----2x------------------5-5-5-5-77777777-|
E|--------------------------------------------------------------|

Chorus
"Kaguasaki in the mor..."
4.
G|-----------------------------------------|
D|------5555----------------5555-----------|
A|-2222------5555-7777-2222------5555-4444-|--x2
E|-----------------------------------------|

Outro
5.
G|---------------------|
D|------5555-----------|
A|-2222------5555-7x---|--x4
E|---------------------|

6.
G|----|
D|----|
A|-2x-|
E|----|


Lyrics:


No importa el momento, no importa el lugar
Kaguasaki in the mor, Kaguasaki in the tar
Siempre en las mañanas me acompaña a despertar
23 veces al dia eso es bueno para mi

Kaguasaki in the mor
Kaguasaki in the tar
Kaguasaki in the mor, in the tar, in the night
Y a la concha tu hermana que nos vamos a culear

La Meison nos ataca no nos deja ni fiestear
La tocata aún no empieza y ya nos quieren cortar
Que le pasa a estos culiaos que nos vienen a webiar
23 veces al dia en tu cara cagaré

Tripiu
Salvi
Chanchiu
Vision

______________________________________________

13.

++++++++++++++++++++++++
| Tronic- Ay Hey Chobi |
++++++++++++++++++++++++


No Bass


________________________________________________

14.

++++++++++++++++++++++++
| Tronic- Señora Ester |
++++++++++++++++++++++++


"Por matar sufrirás y el remordimiento te consumirá..."

Tuning: EADG


Intro
1.
G|------------------------------------------------------------|
D|-3-3--3-333--3-222--2-2-5--5-----------------3-3--3-5-55-55-|
A|-----------------------------555-5-5-55-5555----------------|
E|------------------------------------------------------------|

Verse
"No entiendo porque.." 
2.                        
G|-------------------------------------------------------------------------|
D|-33333332-22222222-------------------33333533-22222222-------------------|
A|-------------------00000000-33333333-------------------00000000-33333333-|
E|-------------------------------------------------------------------------|

"Si el verdadero maricon..."
3.
G|-------------------------------------------------------22222222-00000000-|
D|-33333332-22222222-------------------33333333-22222222-------------------|
A|-------------------00000000-33333333-------------------------------------|
E|-------------------------------------------------------------------------|

Pre-Chorus
4.
G|-------------------|
D|-33333333-33330000-|
A|-------------------|
E|-------------------|

Chorus
"Odio siento..."
5.
G|-------------------------------------------------------------------------|
D|-------------------33333333-22222222-------------------33333333-22222222-|
A|-33333333-33333333-------------------33333333-33333333-------------------|
E|-------------------------------------------------------------------------|

"Morirás con dolor..."
6.
G|----------------------------------------------------|
D|-------------------33333333-22222222x---------------|
A|-33333333-33333333----------------------------------|
E|----------------------------------------------------|

Verse
"Señora Ester yo creo que..."
7.
G|-------------------------------------------------------------------------|
D|-33333332-22222222-------------------33333533-22222222-------------------|
A|-------------------00000000-33333333-------------------00000000-33333333-|
E|-------------------------------------------------------------------------|

"Por eso le pido el favor..."
8.
G|-------------------------------------------------------22222222-00000000-|
D|-33333332-22222222-------------------33333333-22222222-------------------|
A|-------------------00000000-33333333-------------------------------------|
E|-------------------------------------------------------------------------|

Pre-Chorus
9.
G|-------------------|
D|-33333333-33330000-|
A|-------------------|
E|-------------------|

Chorus
"Odio siento..."
10.
G|-------------------------------------------------------------------------|
D|-------------------33333333-22222222-------------------33333333-22222222-|
A|-33333333-33333333-------------------33333333-33333333-------------------|
E|-------------------------------------------------------------------------|

"Morirás con dolor..."
11.
G|-------------------------------------------------------------------------|
D|-------------------33333333-22222222----------00002222-33333333-22222222-|
A|-33333333-33333333-------------------33333333----------------------------|
E|-------------------------------------------------------------------------|

Outro
12.
G|------------------------------------------------------------|
D|-3-3--3-333--3-222--2-2-5--5-----------------3-3--3-5-55-55-|
A|-----------------------------555-5-5-55-5555----------------|
E|------------------------------------------------------------|

Chorus
"Odio siento..."
13.
G|-------------------------------------------------------------------------|
D|-------------------33333333-22222222-------------------33333333-22222222-|
A|-33333333-33333333-------------------33333333-33333333-------------------|
E|-------------------------------------------------------------------------|

"Morirás con dolor..."
14.
G|-------------------------------------------------------------------------|
D|-------------------33333333-22222222----------00002222-33333333-22222222-|
A|-33333333-33333333-------------------33333333----------------------------|
E|-------------------------------------------------------------------------|

Bridge
"El remodimiento te consumirá..."
15.
G|----------------------------------------------------------------|
D|----------------------------------------------------------------|
A|----------------------------------------------------------------|
E|-55x--------33x---3x--3x----111x----1x---1-3x---3x--3x----------|

Chorus
"Odio siento..."
16.
G|-------------------------------------------------------------------------|
D|-------------------------------------------------------------------------|
A|-------------------------------------------------------------------------|--x2
E|-55555555-55555555-33333333-33333333-11111111-11111111-33333333-33333333-|

Outro
17.
G|-------------------|
D|-------------------|
A|-3~----------------|
E|-------------------|


Lyrics:


No entiendo porque Sra Ester le grita maricon a el
Porque se besa con otro chico y que tanta la wea
Si el verdadero maricon es el que roba en la estación
El que apuñala por detras, el que asesina solo para ganar

Odio siento por ese maldito bastardo
Que asesinó a mi amigo
Al tonto le imagina que le irá mucho peor
Morirás con dolor maldito bastardo

Sra Ester yo creo que la venganza esta de mas
Porque el de arriba si que sabe bien juzgar a los demas
Por eso le pido el favor de que rekuerde bien usted
Que el verdadero maricon es el que asesina para ganar

Morirás con dolor maldito bastardo maricon
Por matar sufrirás y el remordimiento te consumirá
Por robar, por matar, maldito bastardo morirás

_______________________________________________________

15.

+++++++++++++++++++++++++
| Tronic- Somos Iguales |
+++++++++++++++++++++++++


"Lo que pa ti es extraño para mi esta bien..."

Tuning: EADG


Verse
"Quiero que exista..."
1.
G|------------------------------------------------------|
D|------------------------------------------------------|
A|-11111111-11111111------------------11111111-33333333-|
E|-------------------1111111-11111111-------------------|

"Plantas para fumar..."
2.
G|-----------------------------------------------------------------------------------------|
D|-------------------------------------33333333-33333333-----------------------------------|
A|-55555555-55555555-11111111-11111111-------------------11111111-33333333-55-5557-7777777-|
E|-----------------------------------------------------------------------------------------|

Pre-Chorus
"Si soy ultra normal..."
3.
G|---------------------------------------------------------------------------|
D|---------------------------------------------------------------------------|
A|-11111111-11111111-11111111-11111111-00000000-00000000-11x------33x--------|
E|---------------------------------------------------------------------------|

Chorus
"Entiende bieen..."
4.
G|-------------------------------------------------------------------------|
D|--------------------------------2222-33333333-33333333-33333333-33333533-|
A|-55555555-55555555-55555555-5555-----------------------------------------|
E|-------------------------------------------------------------------------|

"No te da poder..."
5.
G|-------------------------------------------------------------------------|
D|-------------------------------------------------------------------------|
A|-00000000-00000000-00000000-00000000-11111111-33333333-5~----------------|
E|-------------------------------------------------------------------------|

Verse
"Anoche te oí decir..."
6.
G|------------------------------------------------------|
D|------------------------------------------------------|
A|-11111111-11111111------------------11111111-33333333-|
E|-------------------1111111-11111111-------------------|

"Pero te puedo decir..."
7.
G|-----------------------------------------------------------------------------------------|
D|-------------------------------------33333333-33333333-----------------------------------|
A|-55555555-55555555-11111111-11111111-------------------11111111-33333333-55-5557-7777777-|
E|-----------------------------------------------------------------------------------------|

Pre-Chorus
"Estay todo el día..."
8.
G|---------------------------------------------------------------------------|
D|-------------------------------------77777777-77777777---------------------|
A|-11111111-11111111-11111111-11111111-------------------11x------33x--------|
E|---------------------------------------------------------------------------|

Chorus
"Entiende bieen..."
9.
G|-------------------------------------------------------------------------|
D|--------------------------------2222-33333333-33333333-33333333-33333533-|
A|-55555555-55555555-55555555-5555-----------------------------------------|
E|-------------------------------------------------------------------------|

"No te da poder..."
10.
G|-------------------------------------|
D|-----7777-77777777-----7777-77777777-|
A|-0000--------------0000--------------|
E|-------------------------------------|

"Si al final..."
11.
G|-------------------------------------------------------------------------|
D|--------------------------------2222-33333333-33333333-33333333-33333533-|
A|-55555555-55555555-55555555-5555-----------------------------------------|
E|-------------------------------------------------------------------------|

"Rechazar..."
12.
G|------------------------------------------|
D|------------------------------------------|
A|-00000000-00000000-11x---------33x--------|
E|------------------------------------------|

Bridge
13.
G|---------------------------------------------------------------------------|
D|---------------------3~-3-------3-2-----------------------3~-3-------3h5p3-|
A|-5-5-5-5-5-5-5-5-1~-1-----3~--3-----55555555-55555555-1~-1-----3~-33-------|
E|---------------------------------------------------------------------------|

14.
G|--------------------------------------------------------------------------------|
D|---------------------3~-3-------3-2---------------------------------------------|
A|-5-5-5-5-5-5-5-5-1~-1-----3~--3-----11111111-11111111-33333333/1212121212121212-|
E|--------------------------------------------------------------------------------|

Chorus
"Entiende bieen..."
15.
G|-------------------------------------------------------------------------|
D|-------------------------------------33333333-33333333-33333333-33333533-|
A|-------------------------------------------------------------------------|
E|-------------------------------------------------------------------------|

"No te da poder..."
16.
G|-------------------------------------|
D|-----7777-77777777-----7777-77777777-|
A|-0000--------------0000--------------|
E|-------------------------------------|

"Si al final..."
17.
G|-33333333-33333333-33333333-0000-----------------------------------------|
D|--------------------------------3333-00000000-00000000-00000000-00000000-|
A|-------------------------------------------------------------------------|
E|-------------------------------------------------------------------------|

"Rechazar, respetame..."
18.
G|-------------------------------------------------------------------------|
D|-----7777-77777777-----7777-77777777-------------------------------------|
A|-0000--------------0000--------------11111111-33333333-5~----------------|
E|-------------------------------------------------------------------------|


Lyrics:


Quiero que exista un lugar donde logremos hacer
Lo que siempre hemos soñado
Plantas para fumar, espacios para crear
Por que tu piensas que estoy mal?
Si soy ultra normal, y a nadie le hago el mal no entiendo

Entiende bien lo que pa ti es extraño para mi esta bien
Que tu tengas mas años no te da poder, respétame
Somos iguales

Anoche te oí decir que aquella chica esta mal 
Que no trabaja y es drogadicta
Pero te puedo decir que trabaja mas que tu 
Tiene un hijo y estudia mientras tu
Estay todo el dia espiando e inventando cosas

Si al final lo que pa ti es normal a mi me pone mal
Y no por eso yo te voy a rechazar

_____________________________________________

16.

+++++++++++++++++++++
| Tronic- Primitivo |
+++++++++++++++++++++


"Para ya de robar porfavor, date cuenta que las cosas cuestan..."

Tuning: EADG


Verso
"Hay que cambiar un problema social..."
1.
G|------------------------------------------------------------|
D|------------------------------------------22222222-22222222-|
A|-------333333--------333333--------333333-------------------|
E|-550111--------550111--------550111-------------------------|

"Comprando lo que le roba al peatón..."
2.
G|------------------------------|
D|--------------2-2-2-2-2-2-0-0-|
A|-------333333-----------------|
E|-550111-----------------------|

Pre-Chorus
"No puedo entender..."
3.
G|---------------------------------------------------------|
D|-333333-555553--------222222--------333333-555555-222555-|
A|-----------------------------555555----------------------|
E|---------------555555------------------------------------|

Chorus
"Para ya de robar..."
4.
G|-----------------------------------------------------------------------|
D|-33333333-3333332------------------------------------55555555-33332222-|
A|------------------5555555-5555--35-33333333-33333333-------------------|
E|------------------------------55---------------------------------------|

"Tu vida indigna es lo peor..."
5.
G|-------------------------------------|
D|-------------------33333333/55555555-|
A|-55555555-55555555-------------------|
E|-------------------------------------|

Verse
"Escúchame, tu debes entender..."
6.
G|------------------------------------------------------------|
D|------------------------------------------22222222-22222222-|
A|-------333333--------333333--------333333-------------------|
E|-550111--------550111--------550111-------------------------|

"El mundo se pondrá peor..."
7.
G|------------------------------|
D|--------------2-2-2-2-2-2-0-0-|
A|-------333333-----------------|
E|-550111-----------------------|

Pre-Chorus
"Si negociai con el..."
8.
G|---------------------------------------------------------|
D|-333333-555553--------222222--------333333-555555-222555-|
A|-----------------------------555555----------------------|
E|---------------555555------------------------------------|

Chorus
"Para ya de robar..."
9.
G|-----------------------------------------------------------------------|
D|-33333333-3333332------------------------------------55555555-33332222-|
A|------------------5555555-5555--35-33333333-33333333-------------------|
E|------------------------------55---------------------------------------|

"Tu vida indigna es lo peor..."
10.
G|-----------------------------------------------------------------------|
D|------------------33333333-33333322-------------------55555555-33332222|
A|55555555-55555555-------------------33333333-33333333------------------|
E|-----------------------------------------------------------------------|

"Será tu condena por ser ladrón..."
11.
G|-------------------------------------|
D|-------------------33333333/55555555-|
A|-55555555-55555555-------------------|
E|-------------------------------------|

Bridge
12.
G|----------------------------------------------------------------|
D|------------------------------------------------------------222-|
A|----------------------333---333--------------------------333----|
E|-55555555-55555555-555---111----55555555-55555555-555-111-------|

13.
G|--------------------------------------------------|
D|--------------------------------------------------|
A|----------------------333---333-------------------|
E|-55555555-55555555-555---111----55555555-55555555-|

Chorus
"Para ya de robar..."
14.
G|-----------------------------------------------------------------------|
D|-3-3-3-3-3-3x----------------------------------------55555555-33332222-|
A|------------------5555555-5555--35-33333333-33333333-------------------|
E|------------------------------55---------------------------------------|

"Tu vida indigna es lo peor..."
15.
G|-----------------------------------------------------------------------|
D|------------------33333333-33333322-------------------55555555-33332222|
A|55555555-55555555-------------------33333333-33333333------------------|
E|-----------------------------------------------------------------------|

"Será tu condena por ser ladrón..."
16.
G|-------------------------------------|
D|-------------------33333333/55555555-|
A|-55555555-55555555-------------------|
E|-------------------------------------|

Outro
17.
G|-----------------------------|
D|-----------------------------|
A|-------333----------333------|
E|-550111---333-550111---3x-3x-|


Lyrics:


Hay que cambiar un problema social
Todos se quejan de ladron
El error está en negociar con él
Comprando lo que roba al peatón

No puedo entender como ese weon
Nos roba en nuestra puerta

Para ya de robar porfavor
Date cuenta que las cosas cuestan
Tu vida indigna es lo peor

Escúchame, tu debes entender
Que piratear no es trabajar
Si tu le compras al ladron
El mundo se pondrá peor

Si negociai kon el, no te quejes 
De que hay mucha delincuencia

Para ya de robar porfavor
Date cuenta que las cosas cuestan
Tu vida indigna es lo peor
Y jamas podras sentirte libre
Será tu condena por ser ladron

__________________________________________

17.

+++++++++++++++++++
| Tronic- Idiotas |
+++++++++++++++++++


"Como puede ser que el sello gane mas que los artistas que han creado las canciones..."

Tuning: EADG


Verse
"Que dificil es aceptar..."
1.
G|---------------------------------------------------------|
D|---------------44x----44x--------------------------------|
A|-----------------------------44x----44x----77x----77x----|
E|-55x----55x----------------------------------------------|

"Siempre quejándose que el pais..."
2.
G|-----------------------------------------------------|
D|--------------44-44-44x------------------------------|
A|---------------------------44-44-44x----77-77-77x----|
E|-55-55-55x-------------------------------------------|

Pre-Chorus
"Esos que odian a Bush..."
3.
G|--------------------------------------------------------|
D|--------------------------------------------------------|
A|-55x----5-00x-------------44x----5555-4444/7777-5-5-5-5-|
E|-----------------22x----2-------------------------------|

Chorus
"Vallanse de aquí, no se necesitan..."
4.
G|-------------------------------------------------------------------------|
D|-------------------------------------------------------------------------|
A|-------------------------------------55555555-55555555-77777777-77777777-|
E|-55555555-55555555-22222222-22222222-------------------------------------|

Verse
"Que dificil es aceptar..."
5.
G|---------------------------------------------------------|
D|---------------44x----44x--------------------------------|
A|-----------------------------44x----44x----77x----77x----|
E|-55x----55x----------------------------------------------|

"Se que no les gusta trabajar..."
6.
G|-----------------------------------------------------|
D|--------------44-44-44x------------------------------|
A|---------------------------44-44-44x----77-77-77x----|
E|-55-55-55x-------------------------------------------|

Pre-Chorus
"Como pueden criticar en 5 minutos..."
7.
G|--------------------------------------------------------|
D|--------------------------------------------------------|
A|-55x----5-00x-------------44x----5555-4444/7777-5-5-5-5-|
E|-----------------22x----2-------------------------------|

Chorus
"Vallanse de aquí, no se necesitan..."
8.
G|-------------------------------------------------------------------------|
D|-------------------------------------------------------------------------|
A|-------------------------------------55555555-55555555-77777777-77777777-|--x2
E|-55555555-55555555-22222222-22222222-------------------------------------|

Bridge
9.
G|-------------------------------------------------------------------------|
D|-44444444-44444444-------------------------------------------------------|
A|-------------------55555555-55555555-------------------77777777-77777777-|
E|-------------------------------------55555555-55555555-------------------|

10.
G|-------------------------------------------------------------------------|
D|-------------------------------------77777777-66666666-44444444-22222222-|
A|-55555555-55555555-77777777-77777777-------------------------------------|
E|-------------------------------------------------------------------------|

11.
G|-------------------------------------|
D|-00000000-00000000-22222222-22222222-|
A|-------------------------------------|
E|-------------------------------------|

Pre-Chorus
"Como puede ser que el sello..."
12.
G|--------------------------------------------------------|
D|--------------------------------------------------------|
A|-55x----5-00x-------------44x----5555-4444/7777-5-5-5-5-|
E|-----------------22x----2-------------------------------|

Chorus
"Vallanse de aquí, no se necesitan..."
13.
G|-------------------------------------------------------------------------|
D|-------------------------------------------------------------------------|
A|-------------------------------------55555555-55555555-77777777-77777777-|--x2
E|-55555555-55555555-22222222-22222222-------------------------------------|

"Prefieren siempre lo extranjero..."
14.
G|----------------------------------------------------------------|
D|-------------------44444444-44444444----------------------------|
A|-77777777-77777777-------------------55555555-55555555-77777777-|
E|----------------------------------------------------------------|

Outro
15.
G|---------------------------|
D|---------------------------|
A|-5~--4~--2~----------------|
E|-----------------5~--------|


Lyrics:


Que dificil es aceptar
A personas que no aportan, y solo odian
Siempre quejándose de que el pais
No está a nivel de ellos, seudoextranjeros

Esos que odian a Bush y por eso rompen todo lo que hay en nuestras calles
No son Chilenos

Vallanse de aqui no se necesitan, idiotas
Que piensan que romper la ciudad es como defender al país

Que dificil es aceptar
A la gente que predica y no practica
Se que no les gusta trabajar
Y por eso escriben mierda, no te das cuenta

Como pueden criticar en 5 minutos un trabajo que se ha demorado meses
No es profesional

Vallanse de aqui no se necesitan, idiotas
Hablan mal de nuestro país, y sin embargo viven aqui
Prefieren siempre lo extranjero
Y no lo nacional amigo tu estas mal
Asi no vamos a progresar

Como puede ser que el sello gane mas que el artista que ha creado las cansiones
Ya no mas de eso

Vallanse de aqui no se necesitan, idiotas
Que piensan en lucrar, y no entienden lo musical
Vallanse que aqui no se necesitan primates

___________________________________________________

18.

+++++++++++++++++++++++++++++
| Tronic- Nunca Olvidaremos |
+++++++++++++++++++++++++++++


"Te pido un favor, para de hablar weas..."

Tuning: EADG


Verse
"Que facil es pelar al que ha caído..."
1.
G|-------------------------------------|
D|-------------------------------------|
A|-33333333-33333333/88888888-88888888-|
E|-------------------------------------|

"Aunque haya sido el que nos dió victorias..."
2.
G|-------------------------------------|
D|-------------------55555555-55555555-|
A|-33333333-33333333-------------------|
E|-------------------------------------|

"Nos falta recordar..."
3.
G|------------------------------------|
D|-------------------33333333/5-3-2/3-|
A|-00000000-00000000------------------|
E|------------------------------------|

"Tirando mierda no aportas nada..."
4.
G|-------------------------------------|
D|-------------------55555555-55555555-|
A|-33333333-33333333-------------------|
E|-------------------------------------|

Pre-Chorus
"Nunca vamos a olvidar..."
5.
G|-----------------------------------------------------------------|
D|---------222x----3323-00000000-55555555----------3-3-3-3-55-555x-|
A|-000x-----------------------------------00000000-----------------|
E|-----------------------------------------------------------------|

Chorus
"Aquellos que siempre estan donde calienta el sol..."
6.
G|-------------------------------------------------|
D|-------55555-------33333-------55555-33333-55555-|
A|-33333-------00000-------33333-------------------|
E|-------------------------------------------------|

Verse
"Recuerdas cuando estaba tu familia..."
7.
G|-------------------------------------|
D|-------------------------------------|
A|-33333333-33333333/88888888-88888888-|
E|-------------------------------------|

"Reunida celebraba Chile gana..."
8.
G|-------------------------------------|
D|-------------------55555555-55555555-|
A|-33333333-33333333-------------------|
E|-------------------------------------|

"No seas maricon..."
9.
G|-----------------------------------|
D|--------------------333333/5-3-2/3-|
A|-00000000-0000000x-----------------|
E|-----------------------------------|

"Te regaló el triunfo que esperabas..."
10.
G|-------------------------------------|
D|-------------------55555555-55555555-|
A|-33333333-33333333-------------------|
E|-------------------------------------|

Pre-Chorus
"Nunca vamos a olvidar..."
11.
G|-----------------------------------------------------------------|
D|---------222x----3323-00000000-55555555----------3-3-3-3-55-555x-|
A|-000x-----------------------------------00000000-----------------|
E|-----------------------------------------------------------------|

Chorus
"Aquellos que siempre estan donde calienta el sol..."
12.
G|-------------------------------------------------|
D|-------55555-------33333-------55555-33333-55555-|
A|-33333-------00000-------33333-------------------|--x2
E|-------------------------------------------------|

Outro
"Te pido un favor..."
13.
G|-------------------------------------------------------|
D|----------33333333----------22222222-------3~----5~----|
A|-00000000----------33333333----------0~----------------|
E|-------------------------------------------------------|

Bridge
14.
G|----------------------------------------------------------------------|
D|----------------------------33333333-2-222-223-333-33--------2-222-22-|
A|-----------------------------------------------------3-333-33---------|--x2
E|-55555555\44444444\33333333-------------------------------------------|

2:05
15.
G|-------------------------------------------------------------------|
D|-77777777\22222222-33333333----------77777777-22222222-33333333-5~-|
A|-------------------------------------------------------------------|
E|----------------------------33333333-------------------------------|

Chorus
"Aquellos que siempre estan donde calienta el sol..."
16.
G|-------------------------------------------------|
D|-------55555-------33333-------55555-33333-55555-|
A|-33333-------00000-------33333-------------------|--x2
E|-------------------------------------------------|

Outro
17.
G|------------------------------|
D|-------------------555555-55x-|
A|-33333333-33333333------------|
E|------------------------------|


Lyrics: 


Que facil es pelar al que ha caído
Aunque haya sido el que nos dió victoria
Nos falta recordar
Que es lo que has hecho tú
Tirando mierda no aportas nada

Nunca vamos a olvidar
Al ke nos alegró
Y triunfó por la nación

Aquellos que siempre estan donde calienta el sol
No valen nada

Rekuerdas cuando estaba tu familia
Reunida celebraba Chile gana
No seas maricon
Con el que alguna vez
Te regaló el triunfo que esperabas

Aquellos que siempre estan donde calienta el sol
No valen nada
Critican porque sienten envidia 
Y nunca han logrado nada

Te pido un favor
Para de ablar weas
Porque humillando no se gana

______________________________________________________

19.

+++++++++++++++++++
| Tronic- Aceptar |
+++++++++++++++++++


"Nada supera ser tu mismo..."

Tuning: EADG


Intro
1.
G|-------------------------------------------------------------------------|
D|--------------------------------2222--------------------------------2222-|
A|-44444444-44444444-00000000-0000-----22222222-22222224-00000000-0000-----|
E|-------------------------------------------------------------------------|

Verse
"Aceptar al que no es igual a ti..."
2.
G|-------------------------------------------------------------------------|
D|--------------------------------2222-------------------------------------|
A|-44444444-44444444-00000000-0000-----22222222-22222224-00000000-00000000-|
E|-------------------------------------------------------------------------|

"Es avanzar, es compartir..."
3.
G|-------------------------------------------------------------------------|
D|--------------------------------2222-------------------------------------|
A|-77777777-77777777-00000000-0000-----22222222-22222222/44444444-44444444-|
E|-------------------------------------------------------------------------|

Chorus
"Nada le gana a la sinceridad..."
4.
G|-----------------------------------------------------------------------|
D|---------2-22-------------2-22--------------2-22-----------------------|
A|-0-002-22---------0-002-22----------0-002-22---------00000000-22222222-|
E|-------------2222-------------222x--------------2222-------------------|

Outro
5.
G|-------------------|
D|-2~----------------|
A|-------------------|
E|-------------------|

Verse
"Se rompió su corazón..."
6.
G|-------------------------------------------------------------------------|
D|--------------------------------2222-------------------------------------|
A|-44444444-44444444-00000000-0000-----22222222-22222224-00000000-00000000-|
E|-------------------------------------------------------------------------|

"Yo solo dí mi amistad...'
7.
G|-------------------------------------------------------------------------|
D|--------------------------------2222-------------------------------------|
A|-77777777-77777777-00000000-0000-----22222222-22222222/44444444-44444444-|
E|-------------------------------------------------------------------------|

Chorus
"Nada le gana a la sinceridad..."
8.
G|-----------------------------------------------------------------------|
D|---------2-22-------------2-22--------------2-22-----------------------|
A|-0-002-22---------0-002-22----------0-002-22---------00000000-22222222-|
E|-------------2222-------------222x--------------2222-------------------|

"No pienses que sabemos la vedad..."
9.
G|-----------------------------------------------------------------------|
D|---------2-22-------------2-22--------------2-22-----------------------|
A|-0-002-22---------0-002-22----------0-002-22---------00000000-22222222-|
E|-------------2222-------------222x--------------2222-------------------|

Bridge
10.
G|-------------------------------------------------------------------------|
D|-------------------------------------------------------66666666-44444444-|
A|-44444444-44446666-00000000-00000000-22222222-22222222-------------------|
E|-------------------------------------------------------------------------|

11.
G|-------------------------------------------------------------------------|
D|-------------------------------------------------------------------------|
A|-44444444-44446666-77777777-77777777-22222222-22222222-00000000-00000000-|
E|-------------------------------------------------------------------------|

Chorus
"Nada le gana a la sinceridad..."
12.
G|-----------------------------------------------------------------------|
D|---------2-22-------------2-22--------------2-22-----------------------|
A|-0-002-22---------0-002-22----------0-002-22---------00000000-22222222-|
E|-------------2222-------------222x--------------2222-------------------|

"No pienses que sabemos la vedad..."
13.
G|-----------------------------------------------------------------------|
D|---------2-22-------------2-22--------------2-22-----------------------|
A|-0-002-22---------0-002-22----------0-002-22---------00000000-22222222-|
E|-------------2222-------------222x--------------2222-------------------|

Outro
14.
G|-------------------------------------------------------------------------|
D|--------------------------------2222--------------------------------2222-|
A|-44444444-44444444-00000000-0000-----22222222-22222224-00000000-0000-----|
E|-------------------------------------------------------------------------|

15.
G|-------------------------------------------------------------------------|
D|-------------------------------------------------------------------------|
A|-77777777-77777777-00000000-00000000-22222222-22222224-00000000-00000000-|
E|-------------------------------------------------------------------------|

16.
G|-------------------------------------------------------------------------|
D|--------------------------------2222--------------------------------2222-|
A|-44444444-44444444-00000000-0000-----22222222-22222224-00000000-0000-----|
E|-------------------------------------------------------------------------|

17.
G|-------------------------------------------------------------------------|
D|-------------------------------------------------------------------------|
A|-77777777-77777777-00000000-00000000-22222222-22222224-00000000-00000000-|
E|-------------------------------------------------------------------------|

18.
G|-------------------|
D|-------------------|
A|-4~----------------|
E|-------------------|


Lyrics:


Aceptar al que no es 
Igual a ti es madurar
Es avanzar, es compartir
Al entregar recibirás

Nada le gana a la sinceridad
Nada supera ser tu mismo
Envidia forma barata para criticar
Tanto egoísmo

Se rompió su corazón
Que pasa Dios? Si no fuí yo
Yo solo dí mi amistad
Lo entristeció y entristeció

No pienses que sabemos la verdad
Cantamos lo que pensamos
En la misma calle caminamos
Porque peliarnos?

______________________________________________________________


Thank you very much
I hope you enjoyed
Please rate
Cheers!


+++++++++++++++++++++++++++++++++
| RaiLeff                       |
| Underground__Dora@Hotmail.Com |
+++++++++++++++++++++++++++++++++

            
            
Suggest correction
Creating personal tab
Creating personal tab
You can edit any tab online and save it as your Personal.

You can edit, replace or remove any tab part or add personal notes – all changes will be seen only by you.

Personal tabs can be accessed anytime from any device, even offline.
Learn more »
Give kudos to tab author, rate the tab!
1 2 3 4 5
comments
print report bad tab
guest
You may want to rate the tab now too:
select rating
Wanna post a correction for this tab? Suggest correction