Oops, an error
Loading. Please wait.

Kerida bass

version 1
version 1

Whole song

Interactive

by Tronic
818 views 3 this week
no commentswrite comment
1 2 3 4 5
3 more votes to show rating
add to favorites
×
Save as Personal and add changes to this tab that will be seen only by you. Learn more ›
×
You can save this tab as Personal to edit and correct it or add notes. All changes will be seen only by you. Learn more »
launch autoscroll
font size
0
reset
guitar tuner
edit
Autoscroll
slow
fast
+/-
esc
set tempo
stop
Author
++++++++++++++++++
| Tronic- Kerida |
++++++++++++++++++


"Lo siento amiga pero la soledad es de carne y hueso..."

Tuning: EADG


Intro
1.
G|---------------------------------------------|
D|---------------------------------4-4-2-2-0-0-|
A|-2x------------------0-2x--------------------|
E|-------------------2-------------------------|

2.
G|---------------------------------------------------------------------|
D|---------0x--------------0x--------------0x--------------------------|
A|---0-2x------2x----0-2x------2x----0-2x------2x----0-2-2-4-4-5-5-4-0-|
E|-2---------------2---------------2---------------2-------------------|

Verse
"Lo siento kerida..."
3.
G|-------------------------------------------------|
D|-------------------------------------------------|
A|-2x------------------0-2-4--0------------4-5-4-0-|
E|-------------------2-----------2x----------------|

"Lo siento kerida..."
4.
G|-------------------------------------------------|
D|-----------------------------------------4-4-3-3-|
A|-2x------------------0-2-4--0--------------------|
E|-------------------2-----------2x----------------|

Chorus
"Lo siento amiga..."
5.
G|-----------0---------------------------------------------------|
D|-2-2x----2---2-0-2-2x----2-5-5/7-5-4~------4~------4-4-2-2-0-0-|
A|-----------------------------------------4-------4-------------|
E|---------------------------------------------------------------|

Outro
6.
G|---------------------------------------------------------------------|
D|---------0x--------------0x--------------------------------------4-3-|
A|---0-2x------2x----0-2x------2x----0-4x--0x--------0-4x--0x----------|
E|-2---------------2---------------2-----------2x--2-----------2x------|

7.
G|-----------0---------------------------------------------------|
D|-2-2x----2---2-0-2-2x----2-5-5/7-5-4~------4~------4-4-2-2-0-0-|
A|-----------------------------------------4-------4-------------|
E|---------------------------------------------------------------|

Verse
"Lo siento kerida..."
8.
G|-------------------------------------------------|
D|-------------------------------------------------|
A|-2x------------------0-2-4--0------------4-5-4-0-|
E|-------------------2-----------2x----------------|

"Lo siento kerida..."
9.
G|-------------------------------------------------|
D|-----------------------------------------4-4-3-3-|
A|-2x------------------0-2-4--0--------------------|
E|-------------------2-----------2x----------------|

Chorus
"Lo siento amiga..."
10.
G|-----------0---------------------------------------------------|
D|-2-2x----2---2-0-2-2x----2-5-5/7-5-4~------4~------4-4-2-2-0-0-|
A|-----------------------------------------4-------4-------------|
E|---------------------------------------------------------------|

Outro
11.
G|---------------------------------------------------------------------|
D|---------0x--------------0x--------------------------------------4-3-|
A|---0-2x------2x----0-2x------2x----0-4x--0x--------0-4x--0x----------|
E|-2---------------2---------------2-----------2x--2-----------2x------|

12.
G|-----------0---------------------------------------------------|
D|-2-2x----2---2-0-2-2x----2-5-5/7-5-4~------4~------4-4-2-2-0-0-|
A|-----------------------------------------4-------4-------------|
E|---------------------------------------------------------------|

"Lo siento amiga mía..."
13.
G|---------------------------------------------------------------------|
D|-----------------------------------------------------------------4-3-|
A|---0-2x------------------------------4x--0x--------0-4x--0x----------|
E|-2-------------------------------------------2x--2-----------2x------|

14.
G|-----------0---------------------------------------------------|
D|-2-2x----2---2-0-2-2x----2-5-5/7-5-4~------4~------4-4-2-2-0-0-|
A|-----------------------------------------4-------4-------------|
E|---------------------------------------------------------------|

"Tronic..."
15.
G|-------------------------------|
D|-------------------------------|
A|---0-2x------------------------|
E|-2-----------------------------|


Lyrics:


Lo siento kerida
Lo que pasó fué todo culpa mía
Kerida
Lo siento kerida
Mi vida no aporta a tu vida
Kerida

Lo siento amiga
Estoy enamorado de la soledad

Lo siento kerida
Pero hay algo que yo no te he dicho
Kerida
Lo siento kerida
Pero la soledad no estar solo
Kerida

Lo siento amiga
Pero la soledad es de carne y hueso

Lo siento amiga mía
Lo que pasó fué todo culpa mía
Pero es que esa mina 
Esa mina estaba tan rica por la conchetumadre
Que no pude evitarla
No era mi cabeza lo que pensaba
Pero ahora es mejor que todo termine así
Tronic



+++++++++++++++++++++++++++++++++
| RaiLeff                       |
| Underground__Dora@Hotmail.Com |
+++++++++++++++++++++++++++++++++

            
            
Suggest correction
Creating personal tab
Creating personal tab
You can edit any tab online and save it as your Personal.

You can edit, replace or remove any tab part or add personal notes – all changes will be seen only by you.

Personal tabs can be accessed anytime from any device, even offline.
Learn more »
Give kudos to tab author, rate the tab!
1 2 3 4 5
comments
print report bad tab
guest
You may want to rate the tab now too:
select rating
Wanna post a correction for this tab? Suggest correction