Oops, an error
Loading. Please wait.

Ligas Mayores album bass

by Tronic
976 views 1 this week
no commentswrite comment
1 2 3 4 5
3 more votes to show rating
add to favorites
×
Save as Personal and add changes to this tab that will be seen only by you. Learn more ›
×
You can save this tab as Personal to edit and correct it or add notes. All changes will be seen only by you. Learn more »
launch autoscroll
font size
0
reset
guitar tuner
edit
Autoscroll
slow
fast
+/-
esc
set tempo
stop
Author
+++++++++++++++++++++++++
| Tronic- Ligas Mayores |
+++++++++++++++++++++++++


Bass Tab
Album: "Ligas Mayores" -- 2006
Tabbed By: RaiLeff
E-Mail: Underground__Dora@Hotmail.Com


Tronic's third album
all the songs tabbed by me
enjoy!

..::RaiLeff::.. [!]

__________________________________________

Tuning: EADG


Keys:

| x: Mute
| ~: Let Ring
| /: Slide Up
| \: Slide Down
| h: Hammer On
| p: Pull Off


Tracks:


1. Fenix
2. Mantarraya
3. Brasil
4. Gran Velocidad
5. Bajo Llave
6. Los Caminos
7. Indoor
8. Ven Al Boske
9. Santiago
10. Soñando
11. 1.600
12. Rompe El Destino


_____________________________________________________

1.

+++++++++++++++++
| Tronic- Fenix |
+++++++++++++++++


"Si estoy alejado de ti no es que te quiera dejar..."

Tuning: EADG


Intro
1.
G|---------------------------------------|
D|-------0~-1~-111111-------0~-1~-111111-|
A|-1~-3~--------------1~-3~--------------|
E|---------------------------------------|

Verse
"Son las seis, no sale el sol..."
2.
G|----------2--2--2-----------3--3--3-----------222000---------------------|
D|-33333333--33-33-3-11111111--11-11-1-00000000-------33-11111111-11111111-|
A|-------------------------------------------------------------------------|
E|-------------------------------------------------------------------------|

3.
G|--------------------|
D|-------0~-1~-111111-|
A|-1~-3~--------------|
E|--------------------|

"Será que Dios olvidó..."
4.
G|----------2--2--2-----------3--3--3-----------222000---------------------|
D|-33333333--33-33-3-11111111--11-11-1-00000000-------33-11111111-11111111-|
A|-------------------------------------------------------------------------|
E|-------------------------------------------------------------------------|

Pre-Chorus
5.
G|-------------------|
D|-33333333-33333333-|
A|-------------------|
E|-------------------|

Chorus
"Si estoy alejado de ti..."
6.
G|-----------------------------------------------------------------------------|
D|-55555555-55555555-----------------------------------------------------------|
A|-------------------55555555-55555555-33333333-33333333-1~-1~---1~-1~-1111111-|
E|-----------------------------------------------------------------------------|

"Obligan a ponernos de pie..."
7.
G|---------------------------------------------------------------------|
D|-55555555-55555555--------------7777--------------5555---------------|
A|-------------------55555555-5555-----33333333-3333-----1~-1~---1~-1~-|
E|---------------------------------------------------------------------|

Outro
8.
G|---------------------------------------|
D|-------0~-1~-111111-------0~-1~-111111-|
A|-1~-3~--------------1~-3~--------------|
E|---------------------------------------|

Verse
"Se acabó la obscuridad..."
9.
G|----------2--2--2-----------3--3--3-----------222000---------------------|
D|-333x---3--33-33-3-111x---1--11-11-1-000x---0-------33-111x--------------|
A|-------------------------------------------------------------------------|
E|-------------------------------------------------------------------------|

"Entonces Dios no olvidó..."
10.
G|-------------------------------------------------------------------------|
D|-33333333-33333333-11111111-11111111-00000000-00000000-11111111-11111111-|
A|-------------------------------------------------------------------------|
E|-------------------------------------------------------------------------|

Pre-Chorus
11.
G|-------------------|
D|-33333333-33333333-|
A|-------------------|
E|-------------------|

Chorus
"Si estoy alejado de ti..."
12.
G|-----------------------------------------------------------------------------|
D|-55555555-55555555-----------------------------------------------------------|
A|-------------------55555555-55555555-33333333-33333333-1~-1~---1~-1~-1111111-|
E|-----------------------------------------------------------------------------|

"Obligan a ponernos de pie..."
13.
G|---------------------------------------------------------------------|
D|-55555555-55555555--------------7777--------------5555---------------|
A|-------------------55555555-5555-----33333333-3333-----1~------------|
E|---------------------------------------------------------------------|

Bridge
14.
G|----------------------------------|
D|-1~---0~---3~---------------------|
A|----------------33333333-11111111-|
E|----------------------------------|

15.
G|--------------------------------------------------------------|
D|-1~---0~---3~---------------------11111111-33331111-0x--------|
A|----------------33333333-55555555-----------------------------|
E|--------------------------------------------------------------|

Chorus
"Si estoy alejado de ti..."
16.
G|-----------------------------------------------------------------------------|
D|-----------------------------------------------------------------------------|
A|-------------------55555555-55555555-33333333-33333333-1~-1~---1~-1~-1111111-|
E|-33333333-33333333-----------------------------------------------------------|

"Obligan a ponernos de pie..."
17.
G|----------------------------------------------------------------|
D|-55555555-55555555--------------7777-11111111-11111111----------|
A|-------------------55555555-5555-----------------------11111111-|
E|----------------------------------------------------------------|

Outro
18.
G|----------------------------------------------------------|
D|-------0~-1~-111111-------0~-1~-111111-------0~-----------|
A|-1~-3~--------------1~-3~--------------1~-3~----1~--------|
E|----------------------------------------------------------|


Lyrics:


Son las seis, no sale el sol
El gallo no kcanta la canción
Todo es extraño, el dia no empieza
Será que Dios olvidó
Trabajar en el dia de hoy
Todo es obscuro, la noche es eterna

Si estoy alejado de ti
No es que te quiera dejar
El mundo se nos pone dificil
Problemas que nos hacen caer
Obligan a ponerse de pie
Es una lección de la vida
Pararte hace renacer
Pararte hace renacer

Se acabo la obscuridad
El mal sueño ya pasó
Nunca lo malo dura para siempre
Entonces Dios no olvidó
Trabajar en el dia de hoy
Siento alegría, el sol nos anima

____________________________________________________________

2.

++++++++++++++++++++++
| Tronic- Mantarraya |
++++++++++++++++++++++


"Mejor mirar la raya que separa el sol del mar..."

Tuning: EADG


Intro
1.
G|-------------------------------------|
D|-------------------------------------|
A|----------------------------33335555-|
E|-66666666-66666666-66666666----------|

2.
G|-------------------------------------|
D|-------------------------------------|
A|-66666666-66666666-88888888-88888888-|
E|-------------------------------------|

Verse
"Mantarraya..."
3.
G|-------------------------------------|
D|-------------------------------------|
A|-------------------------------------|
E|-3~----------------11111111-11111111-|

"En el agua..."
4.
G|-------------------------------------|
D|--------------5555-------------------|
A|-66666666-8888-----55555555-55555555-|
E|-------------------------------------|

"Peligro hay..."
5.
G|------------------------------5-53---|
D|-55555555-55555555-33333333-33----5--|
A|-------------------------------------|
E|-------------------------------------|

"Y en la arena..."
6.
G|-------------------------------------|
D|------------8-8-88-------------------|
A|-66666666-66-------55555555-55555555-|
E|-------------------------------------|

Pre-Chorus
"El hombre imita..."
7.
G|---------------------------------|
D|----------3~---------------------|
A|-6~-6x-----------------------66x-|
E|-------------1x----33xx-33xx-----|

Chorus
"Nunca podrá..."
8.
G|------------------------------------------------------------------|
D|------------------------------------------------------------------|
A|-33333333-3333333/6666666-6666666---------------------------------|
E|----------------------------------6666666-6666666-5555555-5555555-|

"Porque imitar..."
9.
G|---------------------------------------------------|
D|---------------------------------------------------|
A|-66666666-6666666/8888888-8888888----------5--5----|
E|----------------------------------66666666---6--6x-|

Verse
"Peligro hay..."
10.
G|------------------------------5-53---|
D|-55555555-55555555-33333333-33----5--|
A|-------------------------------------|
E|-------------------------------------|

"Y un pueblo..."
11.
G|-------------------------------------|
D|------------8-8-88-------------------|
A|-66666666-66-------55555555-55555555-|
E|-------------------------------------|

Pre-Chorus
"El hombre imita..."
12.
G|---------------------------------|
D|----------3~---------------------|
A|-6~-6x-----------------------66x-|
E|-------------1x----33xx-33xx-----|

Chorus
"Nunca podrá..."
13.
G|------------------------------------------------------------------|
D|------------------------------------------------------------------|
A|-33333333-3333333/6666666-6666666---------------------------------|
E|----------------------------------6666666-6666666-5555555-5555555-|

"Porque imitar..."
14.
G|------------------------------------------------------------------|
D|--------------------------------------------------5555555-3333333-|
A|-6666666-6666666/88888888-8888888---------------------------------|
E|----------------------------------6666666-5555555-----------------|

"Separa..."
15.
G|-------------------------------------|
D|-------------------------------------|
A|-66666666-66666666-88888888-88888888-|
E|-------------------------------------|

Outro
16.
G|-------------------------------------|
D|-------------------------------------|
A|----------------------------33335555-|
E|-66666666-66666666-66666666----------|

17.
G|-------------------------------------|
D|-------------------------------------|
A|-66666666-66666666-66666666-66665555-|
E|-------------------------------------|

18.
G|-------------------------------------|
D|-------------------------------------|
A|-33333333-33333333-33333333-33333333-|
E|-------------------------------------|

19.
G|-------------------------------------|
D|-------------------------------------|
A|----------------------------33335555-|
E|-66666666-66666666-66666666----------|

Bridge
20.
G|----------------------------------------------------|
D|----------------------------------------------------|
A|-6-66-xxx-6-66-xxx-8-88-xxx-8-88-xxxx-----------66x-|
E|--------------------------------------33xx-33xx-----|

Chorus
"Porque imitar..."
21.
G|------------------------------------------------------------------|
D|--------------------------------------------------5555555-3333333-|
A|-6666666-6666666/88888888-8888888---------------------------------|--x2
E|----------------------------------6666666-5555555-----------------|

"Separa..."
22.
G|-------------------------------------|
D|-------------------------------------|
A|-66666666-66666666-88888888-88888888-|
E|-------------------------------------|

Outro
23.
G|-----------------------------|
D|-----------------------------|
A|-------------------5---5-----|
E|-66666666-66666666---6---6x--|


Lyrics:


Mantarraya sabes volar
En el agua velocidad
Peligro hay, te puedes ocultar
En la arena, nunca te enkontrarán

El hombre imita, el hombre roba
Y siempre lo hace mal

Nunca podrá lo artificial susuperar lo natural
Porque imitar para hacer el mal

Avión fantasma puedes volar
Y los radares no te verán
Peligro hay, tu puedes disparar
Y un pueblo puedes bombardear

Porque imitar para hacer el mal mejor mirar
La raya que separa el sol del mar

_________________________________________________________

3.

++++++++++++++++++
| Tronic- Brasil |
++++++++++++++++++


"Trato de entender y no encuentro una explicación..."

Tuning: EADG


Intro
1.
G|--------------------------------------------|
D|--------3---7-5-5-----------2--------7------|
A|-33-4-55-555----------5-4-33-333-2-0--------|
E|------------------3-3-----------------5-5-5-|

2.
G|------------------------------------------|
D|---3-------5------------------------------|
A|-55-555--------54-33x--33x--33x--33-4-----|
E|-------5-3--3-3---------------------------|

Verse
"Carla quiere ir a Brasil..."
3.
G|------------------------------------------|
D|---3-----------------2--------------------|
A|-55-555---------54-33-333-2-0----0--------|
E|-------5-3-----3--------------------------|

"Bailan por las noches..."
4.
G|------------------------------------------|
D|---3--------------------------------------|
A|-55-555------------54--33x-33x-33x-33-4---|
E|-------5-3-------3------------------------|

"Pedro trabaja hasta morir..."
5.
G|--------------------------------------------|
D|--------3---7-5-5-----------2--------7------|
A|------55-555----------5-4-33-333-2-0--------|
E|------------------3-3-----------------5-5-5-|

"Pero su señora lo engaña..."
6.
G|------------------------------------------|
D|---3-------5------------------------------|
A|-55-555--------54-33x--33x--33x--33-4-----|
E|-------5-3--3-3---------------------------|

Pre-Chorus
"A veces la vida es así..."
7.                       
G|------------------------------------|
D|-----3-----2-5-------2-----3---2----|
A|-1-5---1-3-----3-0-3---3-5---3------|
E|------------------------------------|

"Pero si nos pasa todo a la mierda..."
8.
G|------------------------------------|
D|---3---2----------------------------|
A|-1---3---33333x---------------------|
E|------------------------------------|

Chorus
"Porque doctor..."
9.
G|------------------------------------------|
D|------------------------------------------|
A|-5555555-1111111-3333333------------------|
E|-------------------------5555555----------|

"Trato de entender..."
10.
G|------------------------------------------|
D|------------------------------------------|
A|-5555555-1111111-333333333333-4444--------|
E|------------------------------------------|

"Quizas morir..."
11.
G|------------------------------------------|
D|------------------------------------------|
A|-5555555-1111111-3333333------------------|
E|-------------------------5555555----------|

"O sera otro paso..."
12.
G|------------------------------------------|
D|------------------------------------------|
A|-5555555-1111111-333333333333-4444--------|
E|------------------------------------------|

Verse
"Tanto tiempo sin dormir..."
13.
G|--------------------------------------------|
D|--------3-------5-----------2--------7------|
A|------55-555----------5-4-33-333-2-0--------|
E|-------------53--3-3------------------5-5-5-|

"Si esto sigue asi..."
14.
G|------------------------------------------|
D|---3-------5------------------------------|
A|-55-555--------54-33x--33x--33x--33-4-----|
E|-------5-3--3-3---------------------------|

Pre-Chorus
"A veces la vida es así..."
15.
G|------------------------------------|
D|-----3-----2-5-------2-----3---2----|
A|-1-5---1-3-----3-0-3---3-5---3------|
E|------------------------------------|

"Pero si nos pasa..."
16.
G|------------------------------------|
D|---3---2----------------------------|
A|-1---3---33333x---------------------|
E|------------------------------------|

Chorus
"Porque doctor..."
17.
G|------------------------------------------|
D|---------5555555--------------------------|
A|-5555555---------3333333------------------|
E|-------------------------5555555----------|

"Trato de entender..."
18.
G|------------------------------------------|
D|------------------------------------------|
A|-5555555-1111111-333333333333-4444--------|
E|------------------------------------------|

"Quizas morir..."
19.
G|------------------------------------------|
D|---------5555555--------------------------|
A|-5555555---------3333333------------------|
E|-------------------------5555555----------|

"O sera otro paso..."
20.
G|------------------------------------------|
D|---------5555555--------------------------|
A|-5555555---------3333333333333-2222-------|
E|------------------------------------------|

"A veces la vida es así...]"
21.
G|------------------------------------------|
D|------------------------------------------|
A|-1111111-3333333---------5555-3333--------|
E|-----------------5555555------------------|

"Pero si nos pasa todo a la mierda..."
22.
G|------------------------------------------|
D|------------------------------------------|
A|-1111111-33333x---------------------------|
E|------------------------------------------|

Outro
23.
G|--------------------------------------------|
D|--------3---7-5-5-----------2--------7------|
A|-33-4-55-555----------5-4-33-333-2-0--------|
E|------------------3-3-----------------5-5-5-|

24.
G|------------------------------------------|
D|---3-------5------------------------------|
A|-55-555--------54-33x--33x--33x--33-4-----|
E|-------5-3--3-3---------------------------|

25.
G|--------------------------------------------|
D|--------3---7-5-5-----------2--------7------|
A|------55-555----------5-4-33-333-2-0--------|
E|------------------3-3-----------------5-5-5-|

26.
G|------------------------------------------|
D|---3-------5------------------------------|
A|-55-555--------54-33x--33x--33x--44x-5~---|
E|-------5-3--3-3---------------------------|


Lyrics:


Carla quiere ir a Brasil
Pricila quiere estar en New York
Bailan por las noches para sus sueños cumplir

Pedro trabaja hasta morir
Porque quiere una familia feliz
Pero su señora lo engaña con su Tio Martin

A veces la vida es así
Nos trata mal y nos obliga a mentir
Pero si nos pasa todo a la mierda

Porque Doctor
Se va su vida sin una razon
Trato de entender y no encuentro una explicación
Quizas morir
Es un gran sueño que no tiene fin
O sera otro paso para volver a vivir

Tanto tiempo sin dormir
Tanto tiempo sin pensaar
Si esto sigue asi
Pronto todo acabará

________________________________________________________

4.

++++++++++++++++++++++++++
| Tronic- Gran Velocidad |
++++++++++++++++++++++++++


"Comienza a brillar aquí..."

Tuning: EADG

Intro
1.
G|-------------------------------------------------------|
D|----------55555555----------55555555-------------------|
A|-55555555----------55555555----------11111111-00000000-|
E|-------------------------------------------------------|

Verse
"Desperté otra vez..."
2.
G|------------------------------------|
D|------------------------------------|
A|-0000x--2222x--5555x---------0000x--|
E|----------------------3333x---------|

"Suena como un loop..."
3.
G|-----------------------------------------------------------------------|
D|---------55555555----------------------------55555555------------------|
A|55555555----------00000000-22222222-55555555----------00000000-00000000|
E|-----------------------------------------------------------------------|

Pre-Chorus
"Y al fin..."
4.
G|-------------------------------------|
D|-22222222-22222222-22222222----------|
A|----------------------------55555555-|
E|-------------------------------------|

5.
G|----------------------------------------------|
D|----------------------------------------------|
A|-33333333----------00000000-33333333-33333333-|
E|----------33333333----------------------------|

Chorus
"Ahi va a gran velocidad..."
6.
G|-----------------------------------------------------------------------|
D|-----------------------------------------------------------------------|
A|------------------------------------33333333-33333333-33333333-33333333|
E|33333333-33333333-33333333-33333333------------------------------------|

7.
G|-----------------------------------------------------------------------|
D|------------------55555555-55555555------------------------------------|
A|00000000-00000000-------------------33333333-33333333-33333333-33333333|
E|-----------------------------------------------------------------------|

Verse
"Debo conectar..."
8.
G|--------------------------------------------------|
D|--------------------------------------------------|
A|-5555x---------0000x--2222x--5555x---------0000x--|
E|--------3333x-----------------------3333x---------|

"Si quieres volar..."
9.
G|-----------------------------------------------------------------------|
D|---------55555555----------------------------55555555------------------|
A|55555555----------00000000-22222222-55555555----------00000000-00000000|
E|-----------------------------------------------------------------------|

Pre-Chorus
"Y al fin..."
10.
G|-------------------------------------|
D|-22222222-22222222-22222222----------|
A|----------------------------55555555-|
E|-------------------------------------|

11.
G|----------------------------------------------|
D|----------------------------------------------|
A|-33333333----------00000000-33333333-33333333-|
E|----------33333333----------------------------|

Chorus
"Ahi va a gran velocidad..."
12.
G|-----------------------------------------------------------------------|
D|-----------------------------------------------------------------------|
A|------------------------------------33333333-33333333-33333333-33333333|
E|33333333-33333333-33333333-33333333------------------------------------|

13.
G|-----------------------------------------------------------------------|
D|------------------55555555-55555555------------------------------------|
A|00000000-00000000-------------------33333333-33333333-33333333-33333333|
E|-----------------------------------------------------------------------|

Outro
14.
G|-----------------------------------------------------------------------|
D|-----------------------------------------------------------------------|
A|------------------------------------33333333-33333333-33333333-33333333|
E|33333333-33333333-33333333-33333333------------------------------------|

15.
G|-------------------------------------------------------------|
D|-------------------------------------------------------------|
A|-------------------------------------3~----------------------|
E|-33333333-33333333-33333333-33333333------------------3~-----|

2:09
16.
G|-----------------------------------------------------------------------|
D|-----------------------------------------------------------------------|
A|------------------------------------33333333-33333333-33333333-33333333|
E|55555555-55555555-33333333-33333333------------------------------------|

"Al fin...."
17.
G|-----------------------------------------------------------------------|
D|-----------------------------------------------------------------------|
A|------------------------------------------------------55555555-55555555|
E|33333333-33333333-22222222-22222222-00000000-00000000------------------|

18.
G|-----------------------------------------------------------------------|
D|-----------------------------------------------------------------------|
A|33333333-33333333-------------------33333333-33333333-33333333-33333333|
E|------------------33333333-33333333------------------------------------|

Outro
19.
G|-----------------------------------------------------------------------|
D|-----------------------------------------------------------------------|
A|------------------------------------33333333-33333333-33333333-33333333|
E|33333333-33333333-33333333-33333333------------------------------------|

20.
G|---------------------------------------------------|
D|---------------------------------------------------|
A|---------------------------------------------------|
E|-3~------------------------------------------------|


Lyrics:


Desperté otra vez con su mirada
Y el despertador
Suena como un loop que me atravieza
De otra dimension

Y al fin el tiempo todo sanará
Vuelve a volar

Ahi va a gran velosidad
Comienza a brillar aqui
Lo que esta griz no es para mi

Debo conectar tres mil frecuencias
No sin libertad
Si quieres volar por la autopista
Deja el peso atras

Al fin se desapareció aquella oscuridad
Que en mi
Quiso morir
No es para mi

_____________________________________________________

5.

++++++++++++++++++++++
| Tronic- Bajo Llave |
++++++++++++++++++++++


"Mi respiración te acelera el corazón..."

Tuning: EADG


Intro
1.
G|-2-2-2-2-2-2-2-2-2-2-2-2-2-2-2-2-|
D|---------------------------------|
A|---------------------------------|--x2
E|---------------------------------|

Verse
"Salgo a kaminar..."  
2.
G|------------------------------------------------------------------------|
D|------------------------------------------------------------------------|
A|-77777777-77777777-77777777-77777777------------------------------------|--x2
E|------------------------------------55555555-55555555-55555555-55555555-|

Pre-Chorus
"Y asi..."
3.
G|---------------------------------------------------------------------|
D|-44444444-4444444-2-222222-2242-------------------7-7777777-77777777-|
A|--------------------------------0-000000-0-000000--------------------|
E|---------------------------------------------------------------------|

Chorus
"Aqui mi sueños realidad..."
4.
G|------------------------------------|
D|------------------------------------|
A|------------------------------------|
E|-00000000-00000000-00000000-0000000-|

"Nadie puede entrar..."
5.
G|-------------------------------------------------------------------|
D|-------------------------------------------------------------------|
A|-4-44-4444-44-4442-22-2222-22-22-20-00-0000-00-0000-00-0000-00-000-|
E|-------------------------------------------------------------------|

"Mi respiración..."
6.
G|--------------------------------------------------------------------|
D|--------------------------------------------------------------------|
A|-44444444-44444444-22222222-22222220-00-0000-00-0000-00-0000-00-000-|
E|--------------------------------------------------------------------|

Verse
"Rompo el ventanal..."
7.
G|------------------------------------------------------------------------|
D|------------------------------------------------------------------------|
A|-77777777-77777777-77777777-77777777------------------------------------|--x2
E|------------------------------------55555555-55555555-55555555-55555555-|

Pre-Chorus
"Y asi..."
8.
G|---------------------------------------------------------------------|
D|-44444444-4444444-2-222222-2242-------------------7-7777777-77777777-|
A|--------------------------------0-000000-0-000000--------------------|
E|---------------------------------------------------------------------|

Chorus
"Aqui mi sueños realidad..."
9.
G|------------------------------------|
D|------------------------------------|
A|------------------------------------|
E|-00000000-00000000-00000000-0000000-|

"Nadie puede entrar..."
10.
G|-------------------------------------------------------------------|
D|-------------------------------------------------------------------|
A|-4-44-4444-44-4442-22-2222-22-22-20-00-0000-00-0000-00-0000-00-000-|
E|-------------------------------------------------------------------|

"Mi respirasión..."
11.
G|--------------------------------------------------------------------|
D|--------------------------------------------------------------------|
A|-44444444-44444444-22222222-22222220-00-0000-00-0000-00-0000-00-000-|
E|--------------------------------------------------------------------|

Outro
"Al fin suena la estación..." 
12.
G|------------------------------------------------------------------------|
D|-22222222-22222222-22222222-22222222------------------------------------|
A|------------------------------------44444444-44444444-44444444-44444444-|
E|------------------------------------------------------------------------|

13.
G|---------------------------------------------------|
D|-----------------------------------7-7-7-7-7-7-7-7-|
A|-22222222-22222222-0-0-0-0-0-0-0-0-----------------|
E|---------------------------------------------------|

"Volar..."
14.
G|--------------------------------------------------------------------|
D|-2-2-2-2-2-2-2-2----------------------------------------------------|
A|------------------2-2-2-2-2-2-2-2--0-0-0-0-0-0-0-0--0-0-0-0-0-0-0-0-|
E|--------------------------------------------------------------------|

15.
G|-------|
D|-------|
A|-0~----|
E|-------|


Lyrics:


Salgo a caminar, luz artificial
Nadie alrededor, cero sensacion
Prendo mi pipa, empiezo a volar
La imaginación comienza a brotar

Y asi un festival de risas
Empieza a equilibrar

Aqui mi sueños realidad
Nadie puede entrar, bajo llave quiero estar con vos
Mi respiración te acelera el corazón

Vuelvo a despertar, no se donde estoy
Y esta habitación no es de lo mejor
Rompo el ventanal, comienzo a correr
Escucho una voz de persecusion

Al fin me suena la estación
El tren me dejó...
Y vuelvo a volar...

______________________________________________________

6.

+++++++++++++++++++++++
| Tronic- Los Caminos |
+++++++++++++++++++++++


"Para encontrar no hay que buscar..."

Tuning: EADG


Intro
1.
G|--------------------------------------------------|
D|-------------------------5~-----------------77545-|
A|-------2~----3~----5~----------2~----3~-----------|
E|-3~-----------------------------------------------|

Verse
"Diez mil pesos..."
2.
G|-------------------------------|
D|---5----4----5----4------------|
A|-------2-2--3-3--2-2-----------|--x2
E|-33-3--------------------------|

"Es mejor perder diez mil..."
3.
G|--------4-------------------------|
D|---4---2-2---5----2----5----4----4|
A|--2-2-------3-3--3-3--3-3--5-5--5-|
E|-3--------------------------------|

4.
G|-------------------------|
D|-5~----------------77545-|
A|-------2~----3~----------|
E|------------------------|

"Y en la Disco..."
5.
G|-------------------------------|
D|---5----4----5----4------------|
A|-------2-2--3-3--2-2-----------|--x2
E|-33-3--------------------------|

"Al ron que es bueno..."
6.
G|--------4-------------------------|
D|---4---2-2---5----2----3----4----4|
A|--2-2-------3-3--3-3--5-5--5-5--5-|
E|-3--------------------------------|

Chorus
"Hay viajeros que no encuentran..."
7.
G|---------------------------------------------------------------------|
D|----------------------------------------------2222-------------------|
A|------2222-3333-----------2222-3333-5555-2222------33333333-55555555-|
E|-0000-----------3333-0000--------------------------------------------|

Outro
8.
G|-------------------------|
D|-------------------77545-|
A|-------2~----3~----------|
E|-3~----------------------|

Bridge
9.
G|-------------------------------------------|
D|---5----4----2----4-----5----4----2----4---|
A|-------2-2--3-3--5-5--------2-2--3-3--5-5--|
E|-33-3-----------------33-3-----------------|

10.
G|--------4---------------------------|
D|---4---2-2---5----2----5----4----4--|
A|--2-2-------3-3--3-3--3-3--5-5--5---|
E|-3----------------------------------|

Chorus
"Hay viajeros que no encuentran..."
11.
G|---------------------------------------------------------------------|
D|----------------------------------------------2222-------------------|
A|------2222-3333-----------2222-3333-5555-2222------33333333-55555555-|--x2
E|-0000-----------3333-0000--------------------------------------------|

Outro
12.
G|-------------------------------------------|
D|-------------------77545-------------------|
A|-------2~----3~----------------------------|
E|-3~----------------------3~----------------|


Lyrics:


Diez mil pesos
Te presté y nunca mas te ví
Gran favor me hiciste
Es mejor perder diez mil
Que verte a ti
Y en la disco
Todos toman ese ron bakán
Y no saben que el dueño antes
Al ron que es bueno
Le hecha mierda

Hay viajeros que no encuentran
Hay buscados no encontrados
Que sera lo que detona
Que no encuentre lo deseado
Pienso yo para encontrar
No hay que buscar
El sol

___________________________________________

7.

++++++++++++++++++
| Tronic- Indoor |
++++++++++++++++++


"Entender que volar ya es diferente..."

Tuning: EADG


Intro.
1.
G|-----------------------------|
D|-------5x-5~-------7x-7~-----|
A|-5x-5~-------3x-3~-----------|
E|-----------------------------|

2.
G|-----------------------------|
D|-------5x--5~~---------------|
A|-5x-5~-----------------------|
E|-----------------------------|

Verse
"Paz fabricó un bonito indoor..."
3.
G|----------------------------------|
D|--3----3-5-55--5---------5-7-77-75|
A|-5-5--5---------5-3-33--3---------|
E|----------------------------------|

"Y plantó mucho skank para su mama..."
4.
G|----------------------------------|
D|--3----3-5-55--5---------5-7-5-3-2|
A|-5-5--5---------5-3-33--3---------|
E|----------------------------------|

"Ella tiene un cáncer terminal..."
5.
G|----------------------------------|
D|--3----3-5-55--5---------5-7-77-75|
A|-5-5--5---------5-3-33--3---------|
E|----------------------------------|

"El doctor resetó..."
6.
G|----------------|
D|--3----3-5-55---|
A|-5-5--5---------|
E|----------------|

Pre-Chorus
"Alegría, diversión..."
7.
G|-------------------------------------|
D|-33333333----3333-22222222-----------|
A|---------3333-------------0000-3333--|
E|-------------------------------------|

"Y un bonito Indoor..."
8.
G|---------------------------------|
D|---------3333-----5555555555555--|
A|-55555555----5555----------------|
E|---------------------------------|

Chorus
"Su reloj rompió contra mi frente..."
9.
G|---------------------------------|
D|-----------------------3-5-55-55-|
A|-3-33-32-0-00-03-5-55-5----------|--x2
E|---------------------------------|

"Entender que volar ya es diferente..."
10.
G|---------------------------------|
D|---------2-22-22---------5-55-55-|
A|-0-00-00---------5-55-55---------|--x2
E|---------------------------------|

Outro.
11.
G|-----------------------------|
D|-------5x-5~-------7-5-3x----|
A|-5x-5~-------3x-3~-----------|
E|-----------------------------|

Verse
"Juan soñador y emprendedor..."
12.
G|----------------------------------|
D|--3----3-5-55--5---------5-7-77-75|
A|-5-5--5---------5-3-33--3---------|
E|----------------------------------|

"Comenzó auxiliar, terminó doctor..."
13.
G|----------------------------------|
D|--3----3-5-55--5---------5-7-5-3-2|
A|-5-5--5---------5-3-33--3---------|
E|----------------------------------|

"Le llegó un paciente terminal..."
14.
G|----------------------------------|
D|--3----3-5-55--5---------5-7-77-75|
A|-5-5--5---------5-3-33--3---------|
E|----------------------------------|

"Y Don Juan resetó..."
15.
G|----------------|
D|--3----3-5-55---|
A|-5-5--5---------|
E|----------------|

Pre-Chorus
"Alegría, diversión..."
16.
G|-------------------------------------|
D|-33333333----3333-22222222-----------|
A|---------3333-------------0000-3333--|
E|-------------------------------------|

"Y un bonito Indoor..."
17.
G|---------------------------------|
D|---------3333-----5555555555555--|
A|-55555555----5555----------------|
E|---------------------------------|

Chorus
"Su reloj rompió contra mi frente..."
18.
G|---------------------------------|
D|-----------------------3-5-55-55-|
A|-3-33-32-0-00-03-5-55-5----------|--x2
E|---------------------------------|

"Entender que volar ya es diferente..."
19.
G|---------------------------------|
D|---------2-22-22---------5-55-55-|
A|-0-00-00---------5-55-55---------|--x2
E|---------------------------------|

Outro
"No es refran..."
20.
G|------------------------------------|
D|-33333333----3333-22222222----------|
A|---------3333-------------0000-3333-|
E|------------------------------------|

21.
G|------------------------------------|
D|---------3333-4444-5555555555555555-|
A|-55555555---------------------------|
E|------------------------------------|

Outro.
22.
G|-----------------------------|
D|-------5x-5~-------7-5-3x----|
A|-5x-5~-------3x-3~-----------|
E|-----------------------------|


Lyrics:


Paz fabricó un bonito Indoor
Y plantó mucho skank para su mamá
Ella tiene un cancer terminal y mucho dolor
Y el doctor resetó
Alegría, diversion
Y un bonito Indoor

Su reloj rompió contra mi frente
Desperté soñador, muy consecuente
Entender que volar ya es diferente
Y es mejor que el prozac y es eficiente

Juan soñador y emprendedor
Comenzó auxiliar, terminó doctor
Le llegó un paciente terminal, la mamá de Paz
Y don Juan resetó
Alegría, diversión
Y un bonito Indoor

No es refrán, es canción
Es pasión
Y al final es diferente

______________________________________________________

8.

++++++++++++++++++++++++
| Tronic- Ven Al Boske |
++++++++++++++++++++++++


"Sonrie y ya verás que lo malo pasó..."

Tuning: EADG


Intro
1.
G|-------------------------------------|
D|-5555555--------5555555--------------|
A|--------6666666--------6666666-6-8-8-|
E|-------------------------------------|

2.
G|---------------------------|
D|-5555555-------------------|
A|--------6666666-3333333-5~-|
E|---------------------------|

Verse
"Hoy estoy..."
3.
G|-------------------------------------|
D|-------------------------------------|
A|---------2222-3333---------2222-3333-|
E|-33333333----------33333333----------|    
                                              
"Porque tengo..."                             
4.                                              
G|-------------------------------------|    
D|-55555555----------------------------|
A|---------2222-3333---------2222-3333-|
E|-------------------33333333----------|

"Guardado está..."
5.
G|-------------------------------------|
D|-------------------------------------|
A|---------2222-3333---------2222-3333-|
E|-33333333----------33333333----------|    
                                              
"Porque tengo..."                           
6.                                              
G|-------------------------------------|    
D|-55555555----------------------------|
A|---------2222-3333---------2222-3333-|
E|-------------------33333333----------|

Chorus
"Ven al bosque, siembra tu maldad..."
7.
G|--------------------------------------|
D|----------22222222--------------------|
A|-33333333-----------------------------|
E|-------------------33333333-3333-2222-|

"Te aseguro gran tranquilidad..."
8.
G|------------------------------------|
D|----------22222222------------------|
A|-33333333------------------------7~-|
E|-------------------333333-555555----|

Verse
"Piensalo, piensalo y repiensalo..."
9.
G|-------------------------------------|
D|-------------------------------------|
A|---------2222-3333---------2222-3333-|
E|-33333333----------33333333----------|    
                                               
"Si te hago mal..."                          
10.                                            
G|-------------------------------------|    
D|-55555555----------------------------|
A|---------2222-3333---------2222-3333-|
E|-------------------33333333----------|

"Si quieres guerra..."
11.
G|-------------------------------------|
D|-------------------------------------|
A|---------2222-3333---------2222-3333-|
E|-33333333----------33333333----------|    
                                               
"La paz amigo..."                          
12.                                            
G|-------------------------------------|    
D|-55555555----------------------------|
A|---------2222-3333---------2222-3333-|
E|-------------------33333333----------|

Chorus
"Ven al bosque, siembra tu maldad..."
13.
G|--------------------------------------|
D|----------22222222--------------------|
A|-33333333-----------------------------|
E|-------------------33333333-3333-2222-|

"Te aseguro gran tranquilidad..."
14.
G|--------------------------|
D|----------22222222--------|
A|-33333333-----------------|
E|-------------------333333-|

"Porque no regaré..."
15.
G|-------------------------------------|
D|-------------------------------------|
A|----------77777777-33333333----------|--x3
E|-55555555-------------------33333333-|

"Que se puede salir..."
16.
G|-------------|
D|-------------|
A|----------7~-|
E|-55555555----|

Bridge
17.
G|-------------------------------------|
D|-5555555--------5555555--------------|
A|--------6666666--------6666666-6-8-8-|
E|-------------------------------------|

18.
G|----------------------------------------------------|
D|-5555555--------------------------------------------|
A|--------6666666-33333333-33333333-55555555-55555555-|
E|----------------------------------------------------|

Chorus
"Ven al bosque, siembra tu maldad..."
19.
G|--------------------------------------|
D|----------22222222--------------------|
A|-33333333-----------------------------|
E|-------------------33333333-3333-2222-|

"Te aseguro gran tranquilidad..."
20.
G|--------------------------|
D|----------22222222--------|
A|-33333333-----------------|
E|-------------------333333-|

"Porque no regaré..."
21.
G|-------------------------------------|
D|-------------------------------------|
A|----------77777777-33333333----------|--x6
E|-55555555-------------------33333333-|

"Que lo malo pasó..."
22.
G|-------------|
D|-------------|
A|----------7~-|
E|-55555555----|


Lyrics:


Hoy estoy un poco mas cansado ya
Porque tengo odio en mi corazón
Guardado esta y nunca va a salir
Porque tengo sonrisas en mi alrededor

Ven al bosque y siembra tu maldad
Te aseguro gran tranquilidad
Porque no regaré...

Piensalo, piensalo y repiensalo
Si te hago mal, porfavor para de escucharme
Si quieres guerra, guerra no tendrás
La paz amigo es la mayor felicidad

Y asi se acabará, porfavor creeme
Lo hice una vez cuando quise morir
Y un libro me enseñó que se puede salir
Debes empezar a mirar sin rencor
Sonrie y ya veras que lo malo pasó

______________________________________________________

9.

++++++++++++++++++++
| Tronic- Santiago |
++++++++++++++++++++


"Sol brillar pintando a full la cordillera..."

Tuning: EADG


Verse
"Sol te vas..."
1.
G|-------------------------------------------------------|
D|-------------------------------------------------------|
A|-33333333-33333333-00000000-00000000-------------------|--x2
E|-------------------------------------33333333-33333333-|

Pre-Chorus
"Que quiere ver el..."
2.
G|-------------------|
D|-22222422-00000000-|
A|-------------------|
E|-------------------|

Chorus
"Sol brillar pintando a full..."
3.
G|-------------------------------------------------------|
D|-------------------77777777-77777777-55555555-55555555-|
A|-33333333-33333333-------------------------------------|--x2
E|-------------------------------------------------------|

Verse
"Sol no estas..."
4.
G|-------------------------------------------------------|
D|-------------------------------------------------------|
A|-33333333-33333333-00000000-00000000-------------------|--x2
E|-------------------------------------33333333-33333333-|

Pre-Chorus
"Que quiere ver el..."
5.
G|------------------|
D|-22222422-0000000-|
A|------------------|
E|------------------|

Chorus
"Sol brillar pintando a full..."
6.
G|-------------------------------------------------------|
D|-------------------------------------------------------|
A|-33333333-33333333-------------------------------------|--x2
E|-------------------55555555-55555555-33333333-33333333-|

"Se va, se va, se va..."
7.
G|------------------|
D|-55555555-5-4-2-0-|
A|------------------|
E|------------------|

Bridge       
8.
G|----------------------------------------------------------------------|
D|-------------------------------0-2----------------------------5-4-2-0-|
A|-33333333-33333333-33333333-333---------------------------------------|--x2
E|-----------------------------------33333333-33333333-33333333---------|

Chorus
"Sol brillar pintando a full..."
9.
G|-------------------------------------------------------|
D|-------------------------------------------------------|
A|-33333333-33333377-------------------------------------|--x3
E|-------------------55555555-55555555-33333333-33333333-|

"Que llora y hace llover..."
10.
G|--------------------------------------|
D|--------------------------------------|
A|-33333333-33333333--------------------|
E|-------------------5~-----------------|


Lyrics:


Sol te vas escondiendo hoy
Y las luces reinan 
La ciudad de hoy esa sin color
Tanto humo ensucia el corazón
Que quiere ver el

Sol brillar pintando a full
La cordillera
Que llora y hace llover
Limpia la humanidad

Sol no estas y esta obscuridad
Me enseña a poder escuchar mejor
Ese viento que
Canta y limpia la ciudad
Que quiere ver el

Se va, se va, se va
Se va el sol de la ciudad
Santiago queda sin color

_________________________________________________________

10.

+++++++++++++++++++
| Tronic- Soñando |
+++++++++++++++++++


"So nos dieran a elegir como querer morir sería cantando..."

Tuning: EADG


Intro.
1.                            
G|-----------------------------------------------------|
D|----44-22-4-0x--0-44-22-4------44-00-4-------44-00-4-|
A|-55-------------------------22---------2x--2---------|
E|-----------------------------------------------------|

2.                            
G|----------------------------------------------|
D|----------------------------------------------|
A|-00-55-00-5-0x--0-55-00-5---------------------|
E|----------------------------33333333-33333333-|

Verse
"Nunca es facil comenzar..."
3.
G|-------------------------------------------------------------------------|
D|-------------------------------------------------------------------------|
A|-55555555-55555555-22222222-22222222-00000000-00000000-------------------|
E|-------------------------------------------------------33333333-33333333-|

"Siempre algien se opondrá..."
4.
G|-------------------------------------------------|
D|----44-22-44----44-22-44----44-00-44----44-00-44-|
A|-55----------55----------22----------22----------|
E|-------------------------------------------------|

"Y estar kontento..."
5.
G|-------------------------------------------|
D|-------------------------------------------|
A|-00-55-00-55-00-55-00-55-------------------|
E|-------------------------33333333-33333333-|

Chorus
"Hoy estamos cantando aqúi..."
6.
G|-----------------------------------------------------|
D|----44-22-4-0x--0-44-22-4------44-00-4-------44-00-4-|
A|-55-------------------------22---------2x--2---------|
E|-----------------------------------------------------|

"Estamos tocando aquí..."
7.                            
G|----------------------------------------------|
D|----------------------------------------------|
A|-00-55-00-5-0x--0-55-00-5---------------------|
E|----------------------------33333333-33333333-|

Verse
"Cuatro años sin parar..."
8.
G|-------------------------------------------------------------------------|
D|-------------------------------------------------------------------------|
A|-55555555-55555555-22222222-22222222-00000000-00000000-------------------|
E|-------------------------------------------------------33333333-33333333-|

"Si la musica es tu pasión..."
9.
G|-------------------------------------------------|
D|----44-22-44----44-22-44----44-00-44----44-00-44-|
A|-55----------55----------22----------22----------|
E|-------------------------------------------------|

"Con el mundo..."
10.
G|-------------------------------------------|
D|-------------------------------------------|
A|-00-55-00-55-00-55-00-55-------------------|
E|-------------------------33333333-33333333-|

Chorus
"Hoy estamos cantando aqúi..."
11.
G|-----------------------------------------------------|
D|----44-22-4-0x--0-44-22-4------44-00-4-------44-00-4-|
A|-55-------------------------22---------2x--2---------|
E|-----------------------------------------------------|

"Estamos tocando aquí..."
12.                            
G|----------------------------------------------|
D|----------------------------------------------|
A|-00-55-00-5-0x--0-55-00-5---------------------|
E|----------------------------33333333-33333333-|

Bridge
13.
G|------------------------------------|
D|------------------------------------|
A|-222x------000x---------------------|
E|---------------------333x---333x-5~-|

Chorus
"Hoy estamos cantando aqúi..."
14.
G|-----------------------------------------------------|
D|----44-22-4-0x--0-44-22-4------44-00-4-------44-00-4-|
A|-55-------------------------22---------2x--2---------|
E|-----------------------------------------------------|

"Estamos tocando aquí..."
15.                            
G|----------------------------------------------|
D|----------------------------------------------|
A|-00-55-00-5-0x--0-55-00-5---------------------|
E|----------------------------33333333-33333333-|

"Hoy estamos cantando aqui..."
16.
G|-------------------------------------------------------|
D|-------------------------------------------------------|
A|-22222222-22222222-00000000-00000000-------------------|
E|-------------------------------------33333333-33333333-| 

17.
G|----------------------|
D|----------------------|
A|-------------------5~-|
E|-55555555-55555555----|                  


Lyrics:


Nunca es facil comenzar
Nunca es facil encontrar el buen camino
Siempre alguien se opondrá
Solo debes ignorar y estar kontento

Hoy estamos cantando aqui
Estamos tocando aqui soñando

Cuatro años sin parar
En la misma dirección, seguimos creciendo
Si la musica es tu pasión
Tu deber es compartirla con el mundo

Si nos dieran a elegir
Como querer morir sería cantando

________________________________________________________

11.

+++++++++++++++++
| Tronic- 1.600 |
+++++++++++++++++


"Por suerte ya te dí paz..."

Tuning: EADG


Verse
"Viento golpea mi alma..."
1.
G|-----------------------------------|
D|-22222222222222222/6666666---------|
A|-----------------------------------|
E|-----------------------------------|

"Por suerte ya te dí paz..."
2.
G|------------------------------------------|
D|-------------------4444444----------------|
A|-44444444444444444--------33333333-5555555|
E|------------------------------------------|

"Otra vez agua en el suelo..."
3.
G|-----------------------------------|
D|-22222222222222222/6666666---------|
A|-----------------------------------|
E|-----------------------------------|

"Hay que mudarse de aca..."
4.
G|------------------------------------------|
D|-------------------4444444----------------|
A|-44444444444444444--------33333333-5555555|
E|------------------------------------------|

Pre-Chorus
"Hay fuego, hay viento..."
5.
G|-----------------------------------|
D|-------------7777------------------|
A|-777766665555----33333333-55555555-|
E|-----------------------------------|

Verse
"Durmiendo en la calle denuevo..."
6.
G|-----------------------------------|
D|-22222222222222222/6666666---------|
A|-----------------------------------|
E|-----------------------------------|

"Me estoi llendo mas alla..."
7.
G|------------------------------------------|
D|-------------------4444444----------------|
A|-44444444444444444--------33333333-5555555|
E|------------------------------------------|

Pre-Chorus
"Hay fuego, hay viento..."
8.
G|-----------------------------------|
D|-----------------------------------|
A|-777766665555444433333333-55555555-|
E|-----------------------------------|

Chorus
"Si te vas a morir 9500..."
9.
G|-----------------------------------|
D|-2222------------------------------|
A|------0000-2222-0000---------------|--x2
E|-----------------------------------|

Outro
10.
G|-----------------------------------------------------|
D|-----------------------------------------------------|
A|-77777777-66666666-55555555-44444444-33333333-5555555|
E|-----------------------------------------------------|

Verse
"La gente es tonta..."
11.
G|-----------------------------------|
D|------------2-2--2-2--2-2--2-2-----|
A|-----------------------------------|
E|-----------------------------------|

Chorus
"Si te vas a morir 9500..."
12.
G|-----------------------------------|
D|-2222------------------------------|
A|------0000-2222-0000---------------|--x2
E|-----------------------------------|


Lyrics:


Viento golpea mi alma
Me dice que pronto te iras
Por suerte ya te dí paz
Otra vez agua en el suelo
Se esta filtrando el gas
Hay que mudarse de aca

Hay fuego, hay Viento
Se esta quemando mi hogar

Durmiendo en la calle de nuevo
Ya no quiero trabajar
Me estoy llendo mas alla

Se ha quemado mi hogar

Si te vas a morir 9.500
Que el seguro fallo Otros 1.600
Por todo hay que pagar
Es la vida terrenal
Aunque te vayas de aqui
Seguirás debiendo...

La gente es tonta
Siempre se oprime de cosas
Al final
Hay que hacerlas igual
Porque todos, todos vamos a morir!!

____________________________________________________

12.

++++++++++++++++++++++++++++
| Tronic- Rompe El Destino |
++++++++++++++++++++++++++++


"Como quisiera ver gritando otra vez al grande Curt Cobain..."

Tuning: EADG


Intro.
1.
G|-----------------|
D|-----22------22--|
A|-33-3--3-00-0--0-|
E|-----------------|

Verse
"Como quisiera ver..."
2.
G|-------------------------------------------------------------------------|
D|-------------------------------------33333333-33333333/55555555-55555555-|
A|-33333333-33333333-00000000-00000000-------------------------------------|--x2
E|-------------------------------------------------------------------------|

Pre-Chorus
"Porque morir ya no es gran cosa..."
3.
G|------------------------------------------------|
D|-22222222-22222222-22222222-22222222------------|
A|-------------------------------------0~---------|
E|------------------------------------------------|

Chorus
"Si tienes un problema dificil de arreglar..."
4.
G|-------------------------------------------------------------------------|
D|-33333333-33333333-00000000-00220000-------------------00000000-00000000-|
A|-------------------------------------33333333----------------------------|
E|----------------------------------------------33333333-------------------|

"Rompe el destino..."
5.
G|-------------------------------------------------------------------------|
D|-00000000-00000000-77777777-55555555-55555555-55555555-33333333-33333333-|
A|-------------------------------------------------------------------------|
E|-------------------------------------------------------------------------|

Verse
"Como quisiera ver..."
6.
G|-------------------------------------------------------------------------|
D|-------------------------------------33333333-33333333/55555555-55555555-|
A|-33333333-33333333-00000000-00000000-------------------------------------|--x2
E|-------------------------------------------------------------------------|

Pre-Chorus
"Porque morir ya no es gran kosa..."
7.
G|------------------------------------------------|
D|-22222222-22222222-22222222-22222222------------|
A|-------------------------------------0~---------|
E|------------------------------------------------|

Chorus
"Si tienes un problema dificil de arreglar..."
8.
G|-------------------------------------------------------------------------|
D|-33333333-33333333-00000000-00220000-------------------00000000-00000000-|
A|-------------------------------------33333333----------------------------|
E|----------------------------------------------33333333-------------------|

"Rompe el destino..."
9.
G|-------------------------------------------------------------------------|
D|-00000000-00000000-77777777-55555555-55555555-55555555-33333333-33333333-|
A|-------------------------------------------------------------------------|
E|-------------------------------------------------------------------------|

Bridge
10.
G|-------------------------------------------------------------------------|
D|-------------------------------------33333333-33333333/55555555-55555555-|
A|-33333333-33333333-00000000-00000000-------------------------------------|
E|-------------------------------------------------------------------------|

11.
G|-------------------------------------------------------------------------|
D|-------------------77777777-77777777-33333333-33333333-55555555-55555555-|
A|-33333333-33333333-------------------------------------------------------|
E|-------------------------------------------------------------------------|

12.
G|----------------------|
D|-2~-------------------|
A|-------------------0x-|
E|----------------------|

Chorus
"Si tienes un problema dificil de arreglar..."
13.
G|-------------------------------------------------------------------------|
D|-33333333-33333333-00000000-00220000-------------------00000000-00000000-|
A|-------------------------------------33333333----------------------------|
E|----------------------------------------------33333333-------------------|

"Rompe el destino..."
14.
G|-------------------------------------------------------------------------|
D|-00000000-00000000-77777777-55555555-55555555-55555555-33333333-33333333-|
A|-------------------------------------------------------------------------|
E|-------------------------------------------------------------------------|

Chorus
"Si tienes un problema dificil de arreglar..."
15.
G|-------------------------------------------------------------------------|
D|-33333333-33333333-00000000-00220000-------------------00000000-00000000-|
A|-------------------------------------33333333----------------------------|
E|----------------------------------------------33333333-------------------|

"Rompe el destino..."
16.
G|-------------------------------------------------------------------------|
D|-00000000-00000000-77777777-55555555-55555555-55555555-33333333-33333333-|
A|-------------------------------------------------------------------------|
E|-------------------------------------------------------------------------|

Outro.
17.
G|------------------------------------|
D|-----22------22--3-3-3-3-3-3-3-3-5~-|
A|-33-3--3-00-0--0--------------------|
E|------------------------------------|


Lyrics:


Como quisiera ver gritando otra vez
Al grande Curt Cobain
Incomprendido vistiendo de mujer
Al mundo vomitó

Porque morir ya no es gran cosa

Si tienes un problema dificil de arreglar
Comienza por hablar con la verdad
Rompe el destino no pares de soñar
Que se puede triunfar

Como quisiera ver a Marley otra vez
Cantando en un club
Archibrillante supo combinar
La musica y la paz

____________________________________________________


Cheers!!


+++++++++++++++++++++++++++++++++
| RaiLeff                       |
| Underground__Dora@Hotmail.Com |
+++++++++++++++++++++++++++++++++

            
            
Suggest correction
Creating personal tab
Creating personal tab
You can edit any tab online and save it as your Personal.

You can edit, replace or remove any tab part or add personal notes – all changes will be seen only by you.

Personal tabs can be accessed anytime from any device, even offline.
Learn more »
Give kudos to tab author, rate the tab!
1 2 3 4 5
comments
print report bad tab
guest
You may want to rate the tab now too:
select rating
Wanna post a correction for this tab? Suggest correction