Oops, an error
Loading. Please wait.

Los Caminos bass

by Tronic
387 views 3 this week
no commentswrite comment
1 2 3 4 5
3 more votes to show rating
add to favorites
×
Save as Personal and add changes to this tab that will be seen only by you. Learn more ›
×
You can save this tab as Personal to edit and correct it or add notes. All changes will be seen only by you. Learn more »
launch autoscroll
font size
0
reset
guitar tuner
edit
Autoscroll
slow
fast
+/-
esc
set tempo
stop
Author
+++++++++++++++++++++++
| Tronic- Los Caminos |
+++++++++++++++++++++++


"Para encontrar no hay que buscar..."

Tuning: EADG


Intro
1.
G|--------------------------------------------------|
D|-------------------------5~-----------------77545-|
A|-------2~----3~----5~----------2~----3~-----------|
E|-3~-----------------------------------------------|

Verse
"Diez mil pesos..."
2.
G|-------------------------------|
D|---5----4----5----4------------|
A|-------2-2--3-3--2-2-----------|--x2
E|-33-3--------------------------|

"Es mejor perder diez mil..."
3.
G|--------4-------------------------|
D|---4---2-2---5----2----5----4----4|
A|--2-2-------3-3--3-3--3-3--5-5--5-|
E|-3--------------------------------|

4.
G|-------------------------|
D|-5~----------------77545-|
A|-------2~----3~----------|
E|------------------------|

"Y en la Disco..."
5.
G|-------------------------------|
D|---5----4----5----4------------|
A|-------2-2--3-3--2-2-----------|--x2
E|-33-3--------------------------|

"Al ron que es bueno..."
6.
G|--------4-------------------------|
D|---4---2-2---5----2----3----4----4|
A|--2-2-------3-3--3-3--5-5--5-5--5-|
E|-3--------------------------------|

Chorus
"Hay viajeros que no encuentran..."
7.
G|---------------------------------------------------------------------|
D|----------------------------------------------2222-------------------|
A|------2222-3333-----------2222-3333-5555-2222------33333333-55555555-|
E|-0000-----------3333-0000--------------------------------------------|

Outro
8.
G|-------------------------|
D|-------------------77545-|
A|-------2~----3~----------|
E|-3~----------------------|

Bridge
9.
G|-------------------------------------------|
D|---5----4----2----4-----5----4----2----4---|
A|-------2-2--3-3--5-5--------2-2--3-3--5-5--|
E|-33-3-----------------33-3-----------------|

10.
G|--------4---------------------------|
D|---4---2-2---5----2----5----4----4--|
A|--2-2-------3-3--3-3--3-3--5-5--5---|
E|-3----------------------------------|

Chorus
"Hay viajeros que no encuentran..."
11.
G|---------------------------------------------------------------------|
D|----------------------------------------------2222-------------------|
A|------2222-3333-----------2222-3333-5555-2222------33333333-55555555-|--x2
E|-0000-----------3333-0000--------------------------------------------|

Outro
12.
G|-------------------------------------------|
D|-------------------77545-------------------|
A|-------2~----3~----------------------------|
E|-3~----------------------3~----------------|


Lyrics:


Diez mil pesos
Te presté y nunca mas te ví
Gran favor me hiciste
Es mejor perder diez mil
Que verte a ti
Y en la disco
Todos toman ese ron bakán
Y no saben que el dueño antes
Al ron que es bueno
Le hecha mierda

Hay viajeros que no encuentran
Hay buscados no encontrados
Que sera lo que detona
Que no encuentre lo deseado
Pienso yo para encontrar
No hay que buscar
El sol



+++++++++++++++++++++++++++++++++
| RaiLeff                       |
| Underground__Dora@Hotmail.Com |
+++++++++++++++++++++++++++++++++

            
            
Suggest correction
Creating personal tab
Creating personal tab
You can edit any tab online and save it as your Personal.

You can edit, replace or remove any tab part or add personal notes – all changes will be seen only by you.

Personal tabs can be accessed anytime from any device, even offline.
Learn more »
Give kudos to tab author, rate the tab!
1 2 3 4 5
comments
print report bad tab
guest
You may want to rate the tab now too:
select rating
Wanna post a correction for this tab? Suggest correction