Oops, an error
Loading. Please wait.

Mantarraya bass

by Tronic
917 views 1 this week
no commentswrite comment
1 2 3 4 5
3 more votes to show rating
add to favorites
×
Save as Personal and add changes to this tab that will be seen only by you. Learn more ›
×
You can save this tab as Personal to edit and correct it or add notes. All changes will be seen only by you. Learn more »
launch autoscroll
font size
0
reset
guitar tuner
edit
Autoscroll
slow
fast
+/-
esc
set tempo
stop
Author
++++++++++++++++++++++
| Tronic- Mantarraya |
++++++++++++++++++++++


"Mejor mirar la raya que separa el sol del mar..."

Tuning: EADG


Intro
1.
G|-------------------------------------|
D|-------------------------------------|
A|----------------------------33335555-|
E|-66666666-66666666-66666666----------|

2.
G|-------------------------------------|
D|-------------------------------------|
A|-66666666-66666666-88888888-88888888-|
E|-------------------------------------|

Verse
"Mantarraya..."
3.
G|-------------------------------------|
D|-------------------------------------|
A|-------------------------------------|
E|-3~----------------11111111-11111111-|

"En el agua..."
4.
G|-------------------------------------|
D|--------------5555-------------------|
A|-66666666-8888-----55555555-55555555-|
E|-------------------------------------|

"Peligro hay..."
5.
G|------------------------------5-53---|
D|-55555555-55555555-33333333-33----5--|
A|-------------------------------------|
E|-------------------------------------|

"Y en la arena..."
6.
G|-------------------------------------|
D|------------8-8-88-------------------|
A|-66666666-66-------55555555-55555555-|
E|-------------------------------------|

Pre-Chorus
"El hombre imita..."
7.
G|---------------------------------|
D|----------3~---------------------|
A|-6~-6x-----------------------66x-|
E|-------------1x----33xx-33xx-----|

Chorus
"Nunca podrá..."
8.
G|------------------------------------------------------------------|
D|------------------------------------------------------------------|
A|-33333333-3333333/6666666-6666666---------------------------------|
E|----------------------------------6666666-6666666-5555555-5555555-|

"Porque imitar..."
9.
G|---------------------------------------------------|
D|---------------------------------------------------|
A|-66666666-6666666/8888888-8888888----------5--5----|
E|----------------------------------66666666---6--6x-|

Verse
"Peligro hay..."
10.
G|------------------------------5-53---|
D|-55555555-55555555-33333333-33----5--|
A|-------------------------------------|
E|-------------------------------------|

"Y un pueblo..."
11.
G|-------------------------------------|
D|------------8-8-88-------------------|
A|-66666666-66-------55555555-55555555-|
E|-------------------------------------|

Pre-Chorus
"El hombre imita..."
12.
G|---------------------------------|
D|----------3~---------------------|
A|-6~-6x-----------------------66x-|
E|-------------1x----33xx-33xx-----|

Chorus
"Nunca podrá..."
13.
G|------------------------------------------------------------------|
D|------------------------------------------------------------------|
A|-33333333-3333333/6666666-6666666---------------------------------|
E|----------------------------------6666666-6666666-5555555-5555555-|

"Porque imitar..."
14.
G|------------------------------------------------------------------|
D|--------------------------------------------------5555555-3333333-|
A|-6666666-6666666/88888888-8888888---------------------------------|
E|----------------------------------6666666-5555555-----------------|

"Separa..."
15.
G|-------------------------------------|
D|-------------------------------------|
A|-66666666-66666666-88888888-88888888-|
E|-------------------------------------|

Outro
16.
G|-------------------------------------|
D|-------------------------------------|
A|----------------------------33335555-|
E|-66666666-66666666-66666666----------|

17.
G|-------------------------------------|
D|-------------------------------------|
A|-66666666-66666666-66666666-66665555-|
E|-------------------------------------|

18.
G|-------------------------------------|
D|-------------------------------------|
A|-33333333-33333333-33333333-33333333-|
E|-------------------------------------|

19.
G|-------------------------------------|
D|-------------------------------------|
A|----------------------------33335555-|
E|-66666666-66666666-66666666----------|

Bridge
20.
G|----------------------------------------------------|
D|----------------------------------------------------|
A|-6-66-xxx-6-66-xxx-8-88-xxx-8-88-xxxx-----------66x-|
E|--------------------------------------33xx-33xx-----|

Chorus
"Porque imitar..."
21.
G|------------------------------------------------------------------|
D|--------------------------------------------------5555555-3333333-|
A|-6666666-6666666/88888888-8888888---------------------------------|--x2
E|----------------------------------6666666-5555555-----------------|

"Separa..."
22.
G|-------------------------------------|
D|-------------------------------------|
A|-66666666-66666666-88888888-88888888-|
E|-------------------------------------|

Outro
23.
G|-----------------------------|
D|-----------------------------|
A|-------------------5---5-----|
E|-66666666-66666666---6---6x--|


Lyrics:


Mantarraya sabes volar
En el agua velocidad
Peligro hay, te puedes ocultar
En la arena, nunca te enkontrarán

El hombre imita, el hombre roba
Y siempre lo hace mal

Nunca podrá lo artificial susuperar lo natural
Porque imitar para hacer el mal

Avión fantasma puedes volar
Y los radares no te verán
Peligro hay, tu puedes disparar
Y un pueblo puedes bombardear

Porque imitar para hacer el mal mejor mirar
La raya que separa el sol del mar



+++++++++++++++++++++++++++++++++
| RaiLeff                       |
| Underground__Dora@Hotmail.Com |
+++++++++++++++++++++++++++++++++

            
            
Suggest correction
Creating personal tab
Creating personal tab
You can edit any tab online and save it as your Personal.

You can edit, replace or remove any tab part or add personal notes – all changes will be seen only by you.

Personal tabs can be accessed anytime from any device, even offline.
Learn more »
Give kudos to tab author, rate the tab!
1 2 3 4 5
comments
print report bad tab
guest
You may want to rate the tab now too:
select rating
Wanna post a correction for this tab? Suggest correction