Oops, an error
Loading. Please wait.

Mateo bass

version 1
version 1

Whole song

Interactive

by Tronic
2,351 views 1 this week
no commentswrite comment
1 2 3 4 5
3 more votes to show rating
add to favorites
×
Save as Personal and add changes to this tab that will be seen only by you. Learn more ›
×
You can save this tab as Personal to edit and correct it or add notes. All changes will be seen only by you. Learn more »
launch autoscroll
font size
0
reset
guitar tuner
edit
Autoscroll
slow
fast
+/-
esc
set tempo
stop
Author
+++++++++++++++++
| Tronic- Mateo |
+++++++++++++++++


"La prueba contesté, sin haber estudiado, un siete me saqué..."

Tuning: EADG


Un dos tres cuatro!!

Verse
"Hoy me desperte tarde y no desayuné..."
1.
G|--------------------------------|
D|--------------------------------|
A|------------6666-1111-------531-|--x2
E|-33x------------------3333-3----|

Pre-Chorus
"Un curaito que me ayudó a volver..."
2.
G|----------------------------------------|
D|----------------------------------------|
A|---3----5----3----5---------3-----------|
E|-11-1/33-3-11-1-33-3-1111-11-1-33333333-|

Chorus
"Oh, la prueba terminó..."
3.
G|-------------------------------------------|
D|-------------------------------------------|
A|-6666-1111-----------6666-1111-------------|
E|-----------3333-3333-----------3333-5h6p5~-|

"Oh, no supe que decir..."
4.
G|-----------------------------------------|
D|-----------------------------------------|
A|-6666-1111-----------6666-1111-----------|
E|-----------3333-3333-----------3333-3333-|

Verse
"Y cuando yo llegué me puse a ahblar con el..."
5.
G|--------------------------------|
D|--------------------------------|
A|------------6666-1111-------531-|--x2
E|-33x------------------3333-3----|

Pre-Chorus
"El me reconoció y el pituto nació..."
6.
G|----------------------------------------|
D|----------------------------------------|
A|---3----5----3----5---------3-----------|
E|-11-1/33-3-11-1-33-3-1111-11-1-33333333-|

Chorus
"Oh, la profe se enojó..."
7.
G|--------------------------3333-------------|
D|-------------------------------------------|
A|-6666-1111-----------6666------------------|
E|-----------3333-3333-----------3333-5h6p5~-|

"Oh, la prueba contesté..."
8.
G|-----------------------------------------|
D|-----------------------------------------|
A|-6666-1111-----------6666-1111-----------|
E|-----------3333-3333-----------3333-3333-|

Bridge
9.
G|-------------------------------------------------|
D|-------------------------------------------------|
A|----656-11-313--------------656-11-313-1111-5588-|
E|-33------------3333-3333-33----------------------|

10.
G|-------------------------------------------------------------------|
D|-------------------------------------------------------------------|
A|----656-11-313--------------656-11-313-3333-3333-5555-5555-7799-5x-|
E|-33------------3333-3333-33----------------------------------------|

Chorus
"Oh, la prueba terminó..."
11.
G|-------------------------------------|
D|-----------------7h9p7---------------|
A|-6--6--1--1------------6--6--1--1----|
E|------------3--3------------------3x-|

"Oh, la profe se enojó..."
12.
G|--------------------------3333-------------|
D|-------------------------------------------|
A|-6666-1111-----------6666------------------|
E|-----------3333-3333-----------3333-5h6p5~-|

"Oh, la prueba contesté..."
13.
G|-----------------------------------------|
D|-----------------------------------------|
A|-6666-1111-----------6666-1111-----------|
E|-----------3333-3333-----------3333-3333-|


Lyrics:


Un dos tres cuatro!

Hoy me desperté tarde y no desayuné
Tomé la micro, me dormí y a Pudahuel llegué
Quedé botao y plata no tenía pa volver
Me puse a caminar y en la esquina me encontré
Un curaito que me ayudó a volver
Tarde pero iwal llegué

Oh, la prueba terminó, la profe me pedía una justificación
Oh, no supe que decir y me mandó directo a la oficina del rector

Y cuando yo llegué me puse a hablar con el
Tenía algo que me parecía familiar
Me puse a pensar y entonces recordé
Que mi papa jugaba a la pelota con el
El me reconoció y el pituto nació
'No hay problema, hijo mío vuelva al salón'

Oh, la profe se enojó, ya no nesesitaba la justifikasión
Oh, la prueba contesté, sin haber estudiado, un siete me saqué



+++++++++++++++++++++++++++++++++
| RaiLeff                       |
| Underground__Dora@Hotmail.Com |
+++++++++++++++++++++++++++++++++

            
            
Suggest correction
Creating personal tab
Creating personal tab
You can edit any tab online and save it as your Personal.

You can edit, replace or remove any tab part or add personal notes – all changes will be seen only by you.

Personal tabs can be accessed anytime from any device, even offline.
Learn more »
Give kudos to tab author, rate the tab!
1 2 3 4 5
comments
print report bad tab
guest
You may want to rate the tab now too:
select rating
Wanna post a correction for this tab? Suggest correction