Oops, an error
Loading. Please wait.

Misis Guini bass

by Tronic
2,467 views 3 this week
no commentswrite comment
1 2 3 4 5
3 more votes to show rating
add to favorites
×
Save as Personal and add changes to this tab that will be seen only by you. Learn more ›
×
You can save this tab as Personal to edit and correct it or add notes. All changes will be seen only by you. Learn more »
launch autoscroll
font size
0
reset
guitar tuner
edit
Autoscroll
slow
fast
+/-
esc
set tempo
stop
Author
+++++++++++++++++++++++
| Tronic- Misis Guiñi |
+++++++++++++++++++++++


"Siempre nos pasan cosas distintas..."

Tuning: EADG


Verse
"Cada dia no es igual..."
1.
G|------------------------------------------|
D|-----------5~---6~--------------5~---6~---|
A|-3~---1x-------------33x---1x-------------|
E|------------------------------------------|

"Productos para el hogar..."
2.
G|-------------------------------------|
D|-------------------------------------|
A|-33333333-11111111-------------------|--x2
E|-------------------33333333-44444444-|

Chorus
"Oigia Misis Guiñi..."
3.
G|--------------------------------------------------------------------------|
D|--------------------------------------------------------------------------|
A|-----------------3-1-1111111-11111111-------------------------------------|
E|--------------------------------------33333333-33333333-44444444-44444444-|

"Esto hijo mio lo hago para engañar..."
4.
G|--------------------------------------------------------------------------|
D|--------------------------------------------------------------------------|
A|-----------------3-1-1111111-11111111----------------------------11111111-|
E|-44444444-444x------------------------33333333-33333333-11111111----------|

Verse
"Que loca la situación..."
5.
G|-------------------------------------|
D|-------------------------------------|
A|-33333333-11111111-------------------|--x2
E|-------------------33333333-44444444-|

Pre-Chorus
"Hay que ponerle atención..."
6.
G|---------------|
D|-5~-----6~-----|
A|---------------|
E|---------------|

Chorus
"Oigia Misis Guiñi..."
7.
G|--------------------------------------------------------------------------|
D|--------------------------------------------------------------------------|
A|-----------------3-1-1111111-11111111-------------------------------------|
E|--------------------------------------33333333-33333333-44444444-44444444-|

"Esto hijo mio lo hago para engañar..."
8.
G|--------------------------------------------------------------------------|
D|--------------------------------------------------------------------------|
A|-----------------3-1-1111111-11111111----------------------------11111111-|
E|-44444444-444x------------------------33333333-33333333-11111111----------|

Outro
"Treinta mil al mes..."  
9.                                               
G|----------------------------------------|
D|----------------3-1-0-11--1-1----33-3-3-|
A|-33--3-3----55--------------------------|
E|----------------------------------------|

Bridge
10.                                    
G|-------------------------------------------------------------------------|
D|-------------------------------------11111111-11111111-33333333-33333333-|
A|-33333333-33333333-11111111-11111111-------------------------------------|
E|-------------------------------------------------------------------------|

11.
G|-------------------------|
D|-5~----3~----1~----0x----|
A|-------------------------|
E|-------------------------|

Chorus
"Oigia Misis Guiñi..."
12.
G|--------------------------------------------------------------------------|
D|--------------------------------------------------------------------------|
A|-----------------3-1-1111111-11111111-------------------------------------|
E|-44444444-444x------------------------33333333-33333333-44444444-44444444-|

"Esto hijo mio lo hago para engañar..."
13.
G|--------------------------------------------------------------------------|
D|--------------------------------------------------------------------------|
A|-----------------3-1-1111111-11111111----------------------------11111111-|
E|-44444444-444x------------------------33333333-33333333-11111111----------|

Outro
"Treinta mil al mes..."
14.
G|-------------------------------------------------------------------------|
D|-------------------------------------------------------------------------|
A|-33333333-------------------11111111-33333333-------------------11111111-|
E|----------33333333-44444444-------------------33333333-11111111----------|

15.
G|-----------------------|
D|-----------------------|
A|-3~--------------------|
E|-----------------------|


Lyrics:


Cada día no es igual
Siempre nos pasan cosas distintas
Estabamos comprando pan 
Y una señora guarda en su cartera
Productos para el hogar
Salsa de soya, pollo y siete paltas
Nada de esto iba a pagar
Ella se veía decidida

Oiga Misis Guiñi porque robó usted
Le pregunte
Por su aparencia usted se ve de gran nivel
Esto hijo mio lo hago para engañar
Y asi poder robar mi jubilación me pagan 30 mil

Que loca la situación
Pobre señora Misis Guiñi
No le queda otra opción
Se disfraza como vieja cuica
Al super le roba un monton
En caja paga un kilo de harina
Esto de la jubilación,
Hay que ponerle atensión



+++++++++++++++++++++++++++++++++
| RaiLeff                       |
| Underground__Dora@Hotmail.Com |
+++++++++++++++++++++++++++++++++

            
            
Suggest correction
Creating personal tab
Creating personal tab
You can edit any tab online and save it as your Personal.

You can edit, replace or remove any tab part or add personal notes – all changes will be seen only by you.

Personal tabs can be accessed anytime from any device, even offline.
Learn more »
Give kudos to tab author, rate the tab!
1 2 3 4 5
comments
print report bad tab
guest
You may want to rate the tab now too:
select rating
Wanna post a correction for this tab? Suggest correction